Dancing with myself

Green Day

 Green Day
Tono: E
		
[ Billy Idol cover ]
Green day tocou ela na turnê "warp toor"

(Introdução)


-----000000000--------
-----555545755--------
----------------------
----------------------
----------------------
----------------------


Verso c/ palm mute


(E)         (A)         (B) 
------------------------------------
------------------------------------
------------------------------------
------------------------------------
222222222222777777777777999999999999
222222222222777777777777999999999999
000000000000555555555555777777777777 

Chorus:



(E)          (A)  (B)     (A)
---------------------------
---------------------------
9---99-9-------------------
9---99-9-------------------
7---77-7-----77-7-9----99-97 
-------------55-5-7----77-75


Bridge:



 (E)     (A)     (E)     (B)
---------------------------
---------------------------
--9---------------9--------
--9-------7-------9-------9
--7-------7-------7-------9
----------5---------------7



Grande solo!
 


--------------------------------
------------0000------------0000 
------------4444------------4444 1/2 step bend second time
----22224444--------22224444----
2222------------2222------------




(B)         (E) 
------------------------
------------------------
------------999999999999

999999999999999999999999
999999999999777777777777

777777777777------------



-
-
4^ (Bend one whole step)
-
-
244 exhibiciónes

Comentarios 0

Composición: Sabe quien és el compositor? Envíenos. Contribución: Dôcho
Consigo tocarSin embargo, para tocar esta canción. ¡Sé el primero!
    Aún no puedo reproducir
    Exhibir acordes »
    publicidad
    cerrar