Tono: G
		

  C  D   E   B   Asus  Em
E|-x---x---x---x---0--------|
B|-0---0---0---0---0-----x--|
G|-5---7---9---4---2-----0--|
D|-5---7---9---4---2-----2--|
A|-3---5---7---2---0-----2--|
E|-----------------0-----0--|


C                        D
     What if I wanted to break
                         Em
Laugh it all off in your face
              Bm
What would you do?
C                          D
     What if I fell to the floor
                          Em
Couldn't take all this anymore
              Bm
What would you do, do, do?

C             D
Come break me down and bury me, bury me
Em                 Bm
I am finished with you

           (2x)                        (2x)

E|------------------------|---------------------------|
B|------------------------|---------------------------|sempre na 2x desse 2riff
G|-12-9-------12-9--------|---------12---------12(14)-|vc substitui a ultima nota
D|-----10-9--9----10-9--9-|-9h10-10----9h10-10--------|12 por 14 q esta entre paranteses
A|---------10---------10--|---------------------------|
E|------------------------|---------------------------|


C                   D
 What if I wanted to fight
                       Em
Beg for the rest of my life
              Bm
What would you do?
C
You say you wanted more
D
 What are you waiting for?
Em                  Bm
I'm not running from you (from you)

C             D
Come break me down and bury me, bury me
Em                 Bm
I am finished with you
C          D
Look in my eyes You're killing me, killing me
Em               Bm
All I wanted was you

primeiro


E|----------------------------------------|
B|----------------------------------------|
G|--7h9-----------------------------------|12x
D|----------------------------------------|
A|----------------------------------------|
E|----------------------------------------|                   repetir o primeiro 4x e o segundo 3x


segundo


E|----------------7-----------------------|
B|-----8----7-----------------------------|
G|--9----9-----9--------------------------|2x
D|----------------------------------------|
A|----------------------------------------|
E|----------------------------------------|


Asus             Bm       Em
   I tried to be someone else
                        C        D
   But nothing seems to change I know now


      E         F#*      G*       A*
E|----------------------------------------|
B|--0-0--0--0-0--0--0--0--0--0--0--0--0---|
G|--9-9--9--9-11-11-11-12-12-12-14-14-14--|
D|--9-9--9--9-11-11-11-12-12-12-14-14-14--|
A|--7-7--7--7-9--9--9--10-10-12-12-12-12--|
E|----------------------------------------|

    This  is  who  I   really   am

  Asus            Bm       Em                   C         D
Inside  I finally found myself  Fighting for a chance  I know now,
Em
This  is  who  I  really  am


                           B
E|--X-X-X---X-X-X--------------|
B|--X-X-X---X-X-X-----X--X-X---|
G|--X-X-X---X-X-X-----9--9-9---| (3x)ouça bem a musica,
D|--------------------9--9-9---|  para pegar o ritmo!
A|--------------------7--7-7---|
E|--------------------7--7-7---|



    E                 F#           G
E|-7--7-7--7--7--7-7/9--9---9--9-/10-10-|
B|-7--7-7--7--7--7-7/9--9---9--9-/10-10-|
G|-9--9-9--9--9--9-9/11-11--11-11/12-12-|
D|-9--9-9--9--9--9-9/11-11--11-11/12-12-|
A|--------------------------------------|
E|--------------------------------------|



E|-7----7----7----10----|
B|---10---10---10---10--|
G|----------------------|riff antes de voltar ao refrão!!
D|----------------------|
A|----------------------|
E|----------------------|


C             D
Come break me down and bury me, bury me
Em                  Bm
I am finished with you
C          D
Look in my eyes You're killing me, killing me
Em               (B)
All I wanted was you

C             D
Come break me down
         Em
break me down
         Bm
break me down


E|------------------------|---------------------------|
B|------------------------|---------------------------|
G|-12-9-------12-9--------|---------12---------12(14)-|
D|-----10-9--9----10-9--9-|-9h10-10----9h10-10--------|
A|---------10---------10--|---------------------------|
E|------------------------|---------------------------|


What if I wanted to break
What if I
What if I
Texto Columnas
Alterar tom ½ tono ½ tono
sintonización acordes esconder tabs más »

Comentarios 9

  • Beatriz Beatriz: Publicado en 14/03/2014 22:03

    Tirei ela um pouco mais lenta que a original e num violão acústico! Nunca mais toco de outro jeito! ♡

  • joao.otavio.9028 joao.otavio.9028: Publicado en 24/12/2013 00:58

    VIDEO AULA POR FAVOOOR?

  • Kaina Kaina: Publicado en 26/10/2013 12:58

    \0/ MUITO FIIIRME!!

  • miguelsouza94 miguelsouza94: Publicado en 09/01/2013 20:45

    como faz o ritmo?

  • vic.alves vic.alves: Publicado en 07/10/2012 12:13

    Simplesmente F-O-D-A

  • grinddeath grinddeath: Publicado en 02/11/2011 16:25

    batida, bem a da versão normal é cima baixo cima baixo sem parar, acustica deve ser mais leve

  • jj jj: Publicado en 09/10/2011 12:41

    qual a batida ?

  • ny_mcz ny_mcz: Publicado en 23/06/2011 11:57

    doo kralhaa essa musica

  • victornx42 victornx42: Publicado en 06/03/2011 15:41

    muito bom kra

Composición: Josey Scott / K. Rahman / Terrence Lee Glaze
Ese no és el compositor? Avisenos.
Contribución: eXo Correcciónes: marcos.medeiros.guitarrista , danilo_factor_8 e mais 4 »
  1. Sweet Child O' Mine - Guns N' Roses mantiene 3.214 exhibiciones
  2. Wonderwall - Oasis mantiene 2.325 exhibiciones
  3. All Of Me - John Legend mantiene 2.159 exhibiciones
  4. Nothing Else Matters - Metallica mantiene 1.911 exhibiciones
  5. Stairway To Heaven - Led Zeppelin mantiene 1.619 exhibiciones
  6. When I Was Your Man - Bruno Mars mantiene 1.545 exhibiciones
  7. More Than Words - Extreme mantiene 1.443 exhibiciones
  8. I'm Yours - Jason Mraz mantiene 1.421 exhibiciones
  9. The Scientist - Coldplay mantiene 1.401 exhibiciones
  10. Hey Jude - The Beatles mantiene 1.335 exhibiciones
  1. The Beatles- mantiene 22.679 exhibiciones
  2. Guns N' Roses- mantiene 7.928 exhibiciones
  3. Metallica- mantiene 7.519 exhibiciones
  4. Coldplay- mantiene 5.398 exhibiciones
  5. Nirvana- mantiene 5.122 exhibiciones
  6. Oasis- mantiene 4.947 exhibiciones
  7. Red Hot Chili Peppers- mantiene 4.909 exhibiciones
  8. One Direction- mantiene 4.909 exhibiciones
  9. Bruno Mars- mantiene 4.792 exhibiciones
  10. Ed Sheeran- mantiene 4.114 exhibiciones
Exhibir acordes »

Acordes y tabs

Aprenda

Studio Sol

©1996 - 2014 Cifra Club · el primero, mayor y más accedido del Brasil · 341 mil músicas · 6.3 millones de personas registradas

publicidad
cerrar