Jesus of Suburbia

Green Day

 Green Day
Tono: A#
		
(o baixo segue a guitarra, nas partes que não segue eu coloquei a parte do baixo)

I.   Jesus of Suburbia
Verso:

E|---------------------------------------------------------|
B|---------------------------------------------------------|
G|-6-6-6-6-------------------------------------------------|
D|-6-6-6-6----8-8-8-8----444444444444444--666666666666666--|
A|-4-4-4-4----8-8-8-8----444444444444444--666666666666666--|
E|------------6-6-6-6----222222222222222--4444444444444444-|


Refrão: x3

E|--------------|
B|--------------|
G|--------------|
D|-4444--66666--|
A|-4444--66666--|
E|-2222--44444--|


Ponte: x2

E|----------------------|
B|----------------------|
G|-6-6------------------|
D|-6-6--6-6--4-4444444--|
A|-4-4--6-6--4-4444444--|
E|------4-4--2-2222222--|


Outro:

E|----------------------------------------|
B|----------------------------------------|
G|-6-6-6-6--------------------------------|
D|-6-6-6-6----3-3-3-3----8-8-8--6-6-6--4--|
A|-4-4-4-4----3-3-3-3----8-8-8--6-6-6--4--|
E|------------1-1-1-1----6-6-6--4-4-4--2--|
  riff3(2x)


E|----------------------------------------
B|----------------------------------------
G|4--464-3--------------------------------
D|----------6-----686-4-------------------
A|----------------------------------------
E|----------------------------------------
E|----------------------------------------
B|----------------------------------------
G|----------------------------------------
D|----------------------4-4-4-4---6-6-6-6-
A|----------------------4-4-4-4---6-6-6-6-
E|----------------------2-2-2-2---4-4-4-4-

"Pode ajudar bastante se vc ouvir a musica
 e depois vier aqui para aprender"

Ordem:
Verso x2
Refrão
Riff 1
Verso x2
Refrão
Riff 1
Verso (Sem letra)
Outro

I'm the son of rage and love
The Jesus of Suburbia                           (Verso 1)
From the Bible of none of the above
On a steady diet of

Soda pop and Ritalin
No one ever died for my sins in hell            (Verso 2)
As far as I can tell
At least the ones I've gotten away with

And there's nothing wrong with me
This is how I'm supposed to be                  (Refrão)
In a land of make believe
That don't believe in me

Get my television fix
Sitting on my crucifix                          (Verso 3)
The living room in my private womb
While the moms and brads are away

To fall in love and fall in debt
To alcohol and cigarettes                       (Verso 4)
And Mary Jane to keep me insane
And doing someone else's cocaine

(Refrão)

II.  City of the Damned
O F# dessa parte é o do final de Jesus of Suburbia, faça um slide do F# para o G# que fica mais legal
Intro:

E|-----------|
B|-----------|
G|-----------|
D|-4-----6---|
A|-4-----6---|
E|-2-----4---|


Verso:

E|----------------------------|
B|----------------------------|
G|-6---6----------------------|
D|-6---6---8---6------4---6---|
A|-4---3---8---6------4---6---|
E|---------6---4------2---4---|


Refrão:

E|-----------------------------------------|
B|-----------------------------------------|
G|-------------6---------------------------|
D|-8-----6-----6-----4-----8-----6-----4---|
A|-8-----6-----4-----4-----8-----6-----4---|
E|-6-----4-----------2-----6-----4-----2---|


Ordem:
Intro
Verso x2
Refrão
Verso x2
Final: F5

At the center of the earth
In the parking lot                              (Verso 1)
Of the 7-11 were I was taught
The motto was just a lie

It says home is were your heart is
But what a shame                                (Verso 2)
Cause everyone's heart doesn't beat the same
We're beating out of time

City of the dead
At the end of another lost highway
Sign misleading to nowhere                      (Refrão)
City of the damned
Lost children with there dirty faces today
No one really seems to care

I read the graffiti
In the bathroom stall                           (Verso 3)
Like the holy scriptures of a shopping mall
And so it seemed to confess

It didn't say much
But it only confirmed that                      (Verso 4)
The center of the earth is the end of the world
And I could really care less

(Refrão)
O F# do final é tocado até o Billie gritar Hey, depois entra I Don't Care

III. I Don't Care
Intro:

E|-----------------------------------------------|
B|-----------------------------------------------|
G|--------6------------6------------6------------|
D|-6------6-----6------6-----4------6-------6----|
A|-6------4-----6------4-----4------4-------6----|
E|-4------------4------------2--------------4----|


Solo:

E|---------------------------------------------|
B|---------------------6-----7-7-77-6-------9--|
G|--------6-6-6----------8-6----------8-6-8----|
D|-6-6-66-------6-6-66-------------------------|
A|---------------------------------------------|
E|---------------------------------------------|


Riff 1: x4

E|--------|---------------|
B|--------|---------------|
G|--------|--6------------|
D|-4-6----|--6-----7-6----|
A|-4-6----|--4-----7-6----|
E|-2-4----|--------5-4----|


Verso: x8

E|-------------------------------|
B|-------------------------------|
G|-------------------------------|
D|------------------------7-6----|
A|------------------------7-6----|
E|------------------------5-4----|


Aqui o Mike faz:

G|-----------------------------|
D|-4-4-4-4-4-4-4-4-4-4---------|
A|-----------------------------|
E|-------------------------5-4-|


Refrão:

E|--------------------------------|
B|--------------------------------|
G|-----------6--------------------|
D|-4----6----6-6--------4----6----|
A|-4----6----4-6--------4----6----|
E|-2----4------4--------2----4----|


Riff 4: x4

E|-------------|
B|-------------|
G|--------6----|
D|-4-6----6----|
A|-4-6----4----|
E|-2-4---------|


Outro:

E|-------------|
B|-------------|
G|-6-6-6-66----|
D|-6-6-6-66-6--|
A|-4-4-4-44-6--|
E|----------4--|


Ordem:
Intro c/solo
Intro x4
Riff 1
Verso
Refrão
Riff 2
Outro

I don't care if you don't
I don't care if you don't               (Intro) x4
I don't care if you don't care

I don't care!                           (Riff 1)

Everyone is so full of shit
Burn and raised by hipocrits
Hearts recycled but never saved
From the cradle to the grave            (Verso)
We are the kids of war and peace
From Anaheim to the Middle Mast
We are the stories and disciples
Of the Jesus of suburbia

Land of make believe
And it don't believe in me              (Refrão)
Land of make believe
And I don't believe

And I don't care!
I don't care!
I don't care!                           (Riff 2)
I don't care!
I don't care!

IV.  Dearly Beloved

Riff:   P.M
Aqui ouça a música para conseguir ouvir a hora em que a guitarra da uma tocada sem P.M: x6

E|-----------------------|
B|-----------------------|
G|------5----6-------8---|
D|-6----5----6----6--8---|
A|-6----3----4----6--6---|
E|-4--------------4------|


Dearly beloved are you listening?
I cant remember a word that you were saying
Are we demented or are we disturbed?
The space that's in between insane and insecure

Oh therapy, can you please fill the void?
Am I retarded or am I just overjoyed
Nobody's perfect and I stand accused
For lack of a better word, and that's my beat excuse

V.  Tales of Another Broken Home

Intro: x4

E|-------------------------------|
B|-------------------------------|
G|--------------------------6----|
D|-6--------------------4---6----|
A|-6--------------------4---4----|
E|-4--------------------2--------|


Aqui o Mike faz:

G|--------------------|
D|-6-6-6-6-6-6-6-6----| (Ele achou o 6 pela oitava no próx riff)
A|------------------4-|
E|-----------------2--|

(No 6 da corda D você faz isso de baxo pra cima, e na 6° batida vc bate pra baixo d novo)
(Fica: Pra: Baixo, cima, baixo, cima, baixo ,baixo, cima, baixo)

Riff:

E|-----------------------------|
B|-----------------------------|
G|--------------------------6--|
D|-6-6-6-6-6-6-6-6-6----4---6--|
A|-6-6-6-6-6-6-6-6-6----4---4--|
E|-4-4-4-4-4-4-4-4-4----2------|


Refrão: x2

E|----------------------------------|
B|----------------------------------|
G|-6-----6-----6-----8-----8-----8--|
D|-6--6--6--6--6-----8--6--8--6--8--|
A|-4--6--4--6--4-----6--6--6--6--6--|
E|----4-----4-----------4-----4-----|



E|-----------------------------|
B|---8-8--8-8-8-8--------------|
G|---8-8--8-8-8-8---------6----|
D|---6-6--6-6-6-6-------4-6-6--|
A|----------------------4-4-6--|
E|----------------------2---4--|


Solo:                               x2

E|----------------------------------|
B|----------------------------------|
G|--6-8--6-10-6-8--6-5--3-6-3-5-----|
D|----------------------------------|
A|----------------------------------|
E|----------------------------------|


                                                        x2

E|-------------------------------------------------------|
B|-7p6-9p6-7p6-9p6-7p6-9p6---9p8-11p8-9p8-11p8-9p8-11p8--|
G|----6---6---6---6-------------8----8---8----8----------|
D|-------------------------------------------------------|
A|-------------------------------------------------------|
E|-------------------------------------------------------|


Piano:
C#           D#
I don't feel any shame
  G#        C#
I wont apologize
C#               D#              G#
When there ain't nowhere you can go

C#       D#
Running away from pain
      G#               C#
When you've been victimized
C#          D#
Tales from another broken...

HOME!! - back vocal
aqui o Billie Joe canta alguma coisa parecida com isso:
You're Living
e as guitarras fazem: G#  F# C#
Depois disso vem o final: x2

E|-----------------------------|
B|---8-8--8-8-8-8--------------|
G|---8-8--8-8-8-8--------6-----|
D|---6-6--6-6-6-6------4-6-6---|
A|---------------------4-4-6--|
E|---------------------2---4--|


Ordem:
Intro
Riff x8
Refrão
Riff x8
Refrão x2
Riff x2
Riff x4 c/Solo 1
Refrão c/Solo 2
Piano
Riff x6
Texto Columnas
Alterar tom ½ tono ½ tono
sintonización acordes esconder tabs más »

Comentarios 12

  • analucia.belem analucia.belem: Publicado en 03/11/2013 00:40

    que letra horrível
    vcs já viram a tradução?

  • Felipe Felipe: Publicado en 04/10/2013 21:27

    Video aula!

  • sra_mccartney sra_mccartney: Publicado en 18/09/2013 17:13

    opa, tab muito boa, tô conseguindo tirar, vlw

  • paulo.lucio.336 paulo.lucio.336: Publicado en 28/04/2013 16:04

    a ordem certa da 1° part. e essa ó? Verso:2X, REFRAO:3X, Ponte: x2, verso 2X, refrao:3X, Ponte:2X, VERSO:2X, Outro:, riff(2x)

  • paulo.lucio.336 paulo.lucio.336: Publicado en 28/04/2013 15:30

    a ordem certa da 1° part. e essa ó? Verso:2X, REFRAO:3X, Ponte: x2, verso 2X, refrao:3X, Ponte:2X, VERSO:2X, Outro:, riff(2x). VERSO:2X

  • paulo.lucio.336 paulo.lucio.336: Publicado en 27/04/2013 18:00

    faz a video aula ai essa musica e muito boa e faz tbm dah banda punk ''bad religion'' as musicas deles sao muito boas :D

  • slashlespaul58 slashlespaul58: Publicado en 14/01/2013 23:17

    Video aula por favor, adoro essa musica !!!!

  • thiagolennon thiagolennon: Publicado en 25/09/2012 20:31

    video aula pfff

  • prolang prolang: Publicado en 07/03/2012 20:40

    obrigado pela tablatura está correta tem umas partes não muito bem feita mas da pra tirar de ouvido

  • jvalcarte jvalcarte: Publicado en 18/12/2011 21:54

    Muuuito boa!

Exhibiendo 10 de 12 comentarios Mostrar más ver todo »
Composición: Billie Joe Armstrong / Green Day / Moore / Natalie Hinds / Robert Thiele / Tommy Torres
Ese no és el compositor? Avisenos.
Contribución: rato Correcciónes: Joao e mais 2 »
  1. Sweet Child O' Mine - Guns N' Roses mantiene 2.746 exhibiciones
  2. Wonderwall - Oasis mantiene 1.998 exhibiciones
  3. When I Was Your Man - Bruno Mars mantiene 1.623 exhibiciones
  4. Nothing Else Matters - Metallica mantiene 1.570 exhibiciones
  5. Stairway To Heaven - Led Zeppelin mantiene 1.549 exhibiciones
  6. Hey Jude - The Beatles mantiene 1.442 exhibiciones
  7. All Of Me - John Legend mantiene 1.420 exhibiciones
  8. More Than Words - Extreme mantiene 1.346 exhibiciones
  9. The Scientist - Coldplay mantiene 1.313 exhibiciones
  10. Wake Me Up - Avicii mantiene 1.140 exhibiciones
  1. The Beatles- mantiene 20.830 exhibiciones
  2. Guns N' Roses- mantiene 6.945 exhibiciones
  3. Metallica- mantiene 6.797 exhibiciones
  4. Coldplay- mantiene 5.138 exhibiciones
  5. One Direction- mantiene 5.035 exhibiciones
  6. Red Hot Chili Peppers- mantiene 4.876 exhibiciones
  7. Nirvana- mantiene 4.876 exhibiciones
  8. Bruno Mars- mantiene 4.760 exhibiciones
  9. Oasis- mantiene 4.399 exhibiciones
  10. Green Day- mantiene 3.558 exhibiciones
Exhibir acordes »

Acordes y tabs

Aprenda

Studio Sol

©1996 - 2014 Cifra Club · el primero, mayor y más accedido del Brasil · 335 mil músicas · 6.1 millones de personas registradas

publicidad
cerrar