Thousand Foot Krutch

Make Me A Believer

10 reproducciones
Tono: G
Drop D Tuning  D A D G B E
Here you go.  I didn't realize that the last chorus had a different lead till
just now and I don't feel like going back to pick it up.  It's not real
hard to play, just kinda hard to hear.  Have fun.

 Intro

|-------------------|-----------------------|-------------------|
|-------------------|-----------------------|-------------------|
|-------------------|-----------------------|-------------------|
|-------------------|-----------------------|-------------------|
|-3p0-0-0-3-3-5-5-5-|-3p0-0-0-3-3-5-5-5-5-5-|-3p0-0-0-3-3-5-5-5-|
|-3p0-0-0-3-3-5-5-5-|-3p0-0-0-3-3-5-5-5-5-5-|-3p0-0-0-3-3-5-5-5-|


|-----------------|
|-----------------|
|-----------------| 2x
|-5-5-5-5-5-5b6-5-|
|-5-5-5-5-5-5b6-5-|
|-5-5-5-5-5-5b6-5-|




 Verse


|----------|----------|----------|-------------------|
|----------|----------|----------|-------------------|
|----------|----------|----------|---------5-5-5-5-5-|
|-0-0-0----|-8-8-8----|-5-5-5----|---------5-5-5-5-5-|
|-0-0-0----|-8-8-8----|-5-5-5----|-3p0-0-0-3-3-3-3-3-|
|-0-0-0----|-8-8-8----|-5-5-5----|-3p0-0-0-----------|


|----------|----------|----------|-------------------|
|----------|----------|----------|-------------------|
|----------|----------|----------|-------------------|
|-0-0-0----|-8-8-8----|-5-5-5----|---------5-5-5-5-5-|
|-0-0-0----|-8-8-8----|-5-5-5----|-3p0-0-0-5-5-5-5-5-|
|-0-0-0----|-8-8-8----|-5-5-5----|-3p0-0-0-5-5-5-5-5-|

Pre Chorus
|-----------------------|------------------------|
|-----------------------|------------------------|
|-----------------------|------------------------|
|-7-----7---------------|-10----10---------------|
|-5-----5---------------|--8-----8---------------|
|-5-----5---------------|--8-----8---------------|
|
| 
|-----------------------|------------------------|
|-----/10-(10)pb11r(10)-|------/10-(10)pb11r(10)-|
|-7---------------------|--7---------------------|
|-----------------------|------------------------|
|-----------------------|------------------------|
|-----------------------|------------------------|


 
|-----------------------|-------------|
|-----------------------|-------------|
|-----------------------|-----------5-|
|-7-----7---------------|--8--3--1--5-|
|-5-----5---------------|--8--3--1--3-|
|-5-----5---------------|--8--3--1----|
|
|-----------------------|-------------|
|-----/10-(10)pb11r(10)-|-11-------13-|
|-7---------------------|----10-------|
|-----------------------|-------13----|
|-----------------------|-------------|
|-----------------------|-------------|


 Chorus

|----------|---------------------|----------------------|----------------|
|----------|---------------------|----------------------|----------------|
|----------|---------------------|----------------------|----------------|
|-0---10---|--8-8-10-10----------|--0-0-7--7-------7--7-|-10-10--8--8--8-|
|-0----8---|--8-8-10-10----------|--0-0-5--5-------5--5-|-10-10--8--8--8-|
|-0--------|--8-8-10-10----------|--0-0-----------------|-10-10--8--8--8-|
|
|----------|---------------------|----------------------|----------------|
|-----10---|-10------------------|-10-------------------|----------------|
|-7--------|----7--9-(9)pb10r(9)-|----7-9-(9)pb10r(9)---|-12-12-10-10-10-|
|----------|---------------------|----------------------|----------------|
|----------|---------------------|----------------------|----------------|
|----------|---------------------|----------------------|----------------|


|----------|---------------------|
|----------|---------------------|
|----------|---------------------|
|-0---10---|--8-8-10-10----------|
|-0----8---|--8-8-10-10----------|
|-0--------|--8-8-10-10----------|
|
|----------|---------------------|
|-----10---|-10------------------|
|-7--------|----7--9-(9)pb10r(9)-|
|----------|---------------------|
|----------|---------------------|
|----------|---------------------|


|----------------------------------|-----------------------|
|----------------------------------|-----------------------|
|----------------------------------|-----------------------|
|-12p10-10-10-10-10-10------10--10-|-7-7-7--8-8--8-8-------|
|-12p10-10-10-10-10-10------10--10-|-7-7-7--8-8--8-8----0--|
|-12p10-10-10-10-10-10------10--10-|-7-7-7--8-8--8-8----0--|
|
|----------------------------------|-----------------------|
|-10-------------------------------|-----------------------|
|--------7-----9----(9)pb10r(9)----|-9-9---10---10---10----|
|----------------------------------|-----------------------|
|----------------------------------|-----------------------|
|----------------------------------|-----------------------|


 Bridge

|------------|----------|------------|--------|
|------------|----------|------------|--------|
|------------|----------|------------|--------|
|--8---------|-10-------|--5---------|--3-----|
|--8---------|-10-------|--5---------|--3-----|
|--8---------|-10-------|--5---------|--3-----|
|
|
|-------8----|-(8)------|-------8----|-(8)----|
|-10---------|----------|-10---------|--------|
|----10------|----------|----10------|--------|
|------------|----------|------------|--------|
|------------|----------|------------|--------|
|------------|----------|------------|--------|


|------------|------------|------------|----------------|
|------------|------------|------------|----------------|
|------------|------------|------------|----------------|
|--8---------|-10---------|--5---------|--3-------------|
|--8---------|-10---------|--5---------|--3-------------|
|--8---------|-10---------|--5---------|--3-------------|
|
|-------8----|------------|-------8----|-------8--------|
|-10---------|-------8----|-10---------|----10---10-----|
|----10------|--9-10------|----10------|-10---------10--|
|------------|------------|------------|----------------|
|------------|------------|------------|----------------|
|------------|------------|------------|----------------|


|---------------|---------------------|
|---------------|---------------------|
|---------------|---------------------|
|--8-8--8-8-8-8-|-10-10---10-10-10-10-|
|--8-8--8-8-8-8-|-10-10---10-10-10-10-|
|--8-8--8-8-8-8-|-10-10---10-10-10-10-|
|
|------10-8-----|-10----8----10-10-10-|
|-10------------|---------------------|
|---------------|---------------------|
|---------------|---------------------|
|---------------|---------------------|
|---------------|---------------------|


|-----------------|-------------------------------------|
|-----------------|-------------------------------------|
|-----------------|-------------------------------------|
|--5-5----5-5-5-5-|--3-----3-----3-----3-----3-----3----|
|--5-5----5-5-5-5-|--3-----3-----3-----3-----3-----3----|
|--5-5----5-5-5-5-|--3-----3-----3-----3-----3-----3----|
|
|-----------8-----|-10b13-10b13-10b13-10b13-10b13-10b13-|
|-10--------------|-------------------------------------|
|------10---------|-------------------------------------|
|-----------------|-------------------------------------|
|-----------------|-------------------------------------|
|-----------------|-------------------------------------|


|-------------------------------------|----------------------------|
|-------------------------------------|----------------------------|
|-------------------------------------|----------------------------|
|--2-----2-----2-----2-----2-----2----|--2-----2-----2-----2\------|
|--2-----2-----2-----2-----2-----2----|--2-----2-----2-----2\------|
|--2-----2-----2-----2-----2-----2----|--2-----2-----2-----2\------|
|
|-10b12-10b12-10b12-10b12-10b12-10b12-|-10b12-10b12-10b12-10b12\---|
|-------------------------------------|----------------------------|
|-------------------------------------|----------------------------|
|-------------------------------------|----------------------------|
|-------------------------------------|----------------------------|
|-------------------------------------|----------------------------|

Comentarios 0

¿conseguiste tocar?

covers

¡Grave un vídeo tocando Make Me A Believer y envie para nosotros!

Ex.: http://www.youtube.com/watch?v=0IvSvIwGdwk
ver cover de otras canciones »
0:00 / 0:00

Capitulos

    1 versão de guitarradificuldadreproduccionescontribuición y correción
    1 versão de guitarra eléctricadificuldadreproduccionescontribuición y correción
    1 versão de cavacodificuldadreproduccionescontribuición y correción
    1 versão de tecladodificuldadreproduccionescontribuición y correción
    1 versão de contrabajoreproduccionescontribuición y correción
    play/pausefechar subir/bajar velocidad
    6ª cuerda E5ª cuerda A4ª cuerda D3ª cuerda G2ª cuerda B1ª cuerda E
      acordes
      publicidad
      cerrar
      ok