I Hate Everything About You

Three Days Grace

 Three Days Grace
Tono: A
Sintonización: Eb Ab Db Gb Bb Eb
		
versão acústico..

Drop D
Riff 1:

E|----------------------------------------------------------------|
B|----------------------------------------------------------------|
G|------6-------6-------6-------6-----4-6-----4-6-----4-6-----4-6-|
D|----4-6-----4-6-----4-6-----4-6-----4-6-----4-6-----4-6-----4-6-|
A|----4-------4-------4-------4-----0------0-------0-------0-----|
D|-0h4----0h4-----0h4------0h4-----0------0-------0-------0-------|




E|-------------------------|
B|-------------------------|
G|-------------------------|
D|--2-0-7------------------|  Com distorção partida...
A|--2-0-5------------------|
D|--2-0--------------------|



Refrão:

     F#5  D5   A5       E5       F#5  D5   E5  A5 G#5
E|--------------------------------------------------|
B|--------------------------------------------------|
G|--------------------------------------------------|
D|-4-4--0-0--7-7-7-7--2-2-2-2--4-4--0-0--2-2--7--6--|
A|-4-4--0-0--7-7-7-7--2-2-2-2--4-4--0-0--2-2--7--6--|
D|-4-4--0-0--7-7-7-7--2-2-2-2--4-4--0-0--2-2--7--6--|


Riff 2:

     D5              E5              F#5             E5
E|----------------------------------------------------------------|
B|----------------------------------------------------------------|
G|--1-1-1-2-2-2-4-4-1-1-1-2-2-2-4-4-1-1-1-2-2-2-4-4-1-1-1-2~1-----|
D|--0-0-0-0-0-0-0-0-2-2-2-2-2-2-2-2-4-4-4-4-4-4-4-4-2-2-2-----2---|
A|--------------------------------------------------------------4-|
D|----------------------------------------------------------------|



  (Riff 1)
F#m                D9
everytime we lie awake
                   F#m
after every hit we take
                     D9
every feeling that I get
                        F#m
but I haven´t missed you yet
                       D9
every room-mate kept awake
                          F#m
by every silent scream we make
                        D9
all the feelings that I get
                            E5
but I still don´t miss you yet
                     D5
only when I stop to think about it

Refrão:
F#5   D5      A5         E5
    I    hate everything about you
F#5     D5    E5  A5   G#5
    Why    do I   love you

(Riff 1)

(Riff 1)
F#m                D9
everytime we lie awake
                   F#m
after every hit we take
                     D9
every feeling that I get
                        E5
but I haven´t missed you yet

                     D5
only when I stop to think about it

Refrão:
F#5   D5      A5         E5
    I    hate everything about you
F#5     D5    E5  A5   G#5
    Why    do I   love you

(Riff 2 - 2x)
D5       E5          F#5   E5
Only when I stop to think about it I know
D5        E5           F#5
Only when you stop to think about it do you know

Refrão:
F#5   D5      A5         E5
    I    hate everything about you
F#5     D5    E5  A5   G#5
    Why    do I   love you

F#5     D5      A5         E5
    you    hate everything about me
F#5     D5    E5    A5   G#5
    Why    do you   love me


F#5   D5      A5       E5
    I   hate  you   hate
F#5   D5      E5     A5  G#5
    I   hate  you   love me


F#5   D5      A5         E5
    I    hate everything about you
F#5     D5    E5  A5   G#5
    Why    do I   love you
Texto Columnas
Alterar tom ½ tono ½ tono
sintonización acordes esconder tabs más »

Comentarios (34)

  • douglas.silasdasilvacruz.3 douglas.silasdasilvacruz.3: Publicado en 10/04/2014 19:08

    o refrão tem algo errado

  • felipe.matos.12576 felipe.matos.12576: Publicado en 23/02/2014 11:23

    video aula

  • Ramon Ramon: Publicado en 18/01/2014 20:37

    O Refrão ta meio estranho, né?

  • heroe147 heroe147: Publicado en 27/12/2013 18:13

    affe.. ta dificil no refrao.. o resto consigo de boa..

  • mamaaaa12345678 mamaaaa12345678: Publicado en 08/10/2013 20:52

    Faz video aula ae, ja ta na hora. Vê se fazem esse video e colocam os efeitos tbm .

  • marcos marcos: Publicado en 29/09/2013 18:06

    video aê cara

  • SauloLimaBrito SauloLimaBrito: Publicado en 14/06/2013 18:06

    "Only when I stop to think about YOU I know" no penúltimo verso.

  • SauloLimaBrito SauloLimaBrito: Publicado en 14/06/2013 18:00

    No penúltimo verso a letra é: Only when I stop to think about YOU I know

  • guiscorpions guiscorpions: Publicado en 09/02/2013 13:04

    as cifras do refrão estão erradas, vou ver se conserto

  • asssassinecave asssassinecave: Publicado en 15/01/2013 20:59

    porra Ja passo da hora de ter um video aula!

Exhibiendo 10 de 34 comentarios Mostrar más ver todo »
Composición: Betty Jean Newsome / Dj Paul / Ryland Bouchard / Syd Barrett
Ese no és el compositor? Avisenos.
Contribución: Abreu Correcciónes: tico , jowfromhell11 e mais 9 »
  1. Sweet Child O' Mine - Guns N' Roses mantiene 2.925 exhibiciones
  2. Wonderwall - Oasis mantiene 2.186 exhibiciones
  3. Hey Jude - The Beatles mantiene 1.958 exhibiciones
  4. Nothing Else Matters - Metallica mantiene 1.804 exhibiciones
  5. Wake Me Up - Avicii mantiene 1.773 exhibiciones
  6. Stairway To Heaven - Led Zeppelin mantiene 1.661 exhibiciones
  7. When I Was Your Man - Bruno Mars mantiene 1.589 exhibiciones
  8. More Than Words - Extreme mantiene 1.450 exhibiciones
  9. Get Lucky - Daft Punk mantiene 1.367 exhibiciones
  10. Don't Let Me Down - The Beatles mantiene 1.360 exhibiciones
  1. The Beatles- mantiene 25.078 exhibiciones
  2. Metallica- mantiene 8.619 exhibiciones
  3. Guns N' Roses- mantiene 7.929 exhibiciones
  4. Nirvana- mantiene 6.626 exhibiciones
  5. Red Hot Chili Peppers- mantiene 5.725 exhibiciones
  6. One Direction- mantiene 5.420 exhibiciones
  7. Bruno Mars- mantiene 4.865 exhibiciones
  8. Coldplay- mantiene 4.745 exhibiciones
  9. Oasis- mantiene 4.554 exhibiciones
  10. Green Day- mantiene 3.603 exhibiciones
Exhibir acordes »

Acordes y tabs

Aprenda

Studio Sol

©1996 - 2014 Cifra Club · el primero, mayor y más accedido del Brasil · 329 mil músicas · 5.9 millones de personas registradas

publicidad
cerrar