Broken

Seether

 Seether
Tono: G
		
(intro)


Eb|--2h3-----3-3------3----------2h3-----3-3------3-----------|
Bb|------0-----3----3---3-----3------0-----3----3---3-----3---|
Gb|--------0---0--0---------2----------0---0--0---------2-----|
Db|--2--------------------0------2--------------------0-------|
Ab|------------3---------------------------3------------------|
Eb|-----------------------------------------------------------|



|-2h3-----3-3-----3----------0h2------3p2---0h2-------3p2-----|
|-----0-----3---3---3-----3------3--------3-----3---------3p0-|
|-------0---0-0---------2----------2--------------2-----------|
|-2-------------------0------0----------------------0---------|
|-----------3-------------------------------------------------|
|-------------------------------------------------------------|


(repete a intro)

Em          C      D  Em           C        D
I wanted you to know, I love the way you laugh
Em       C                D
I want hold you high, and steal your pain away
Em          C        D    Em           C         D
I keep your photograph, and I know it serves me well
Em              C             D
I wanna hold you high, and steal your pain.

(outra guitarra entra - clean)

(refrão)

C     Em5   D        C     Em5
'Cause I'm broken, when I'm lonesome
       D     C   Em5               D     C
And I don't feel right when you're gone away

(intro - ponte)
Em C                  Em C            Em  C   D
    You've got away, you don't feel me here... anymore.

(intro - bateria)
  Em          C   D    Em            C    D
The worst is over now, and we can breathe again
 Em       C                D
I wanna hold you high, and steal my pain away
 Em                C      D     Em           C      D
There is so much left to learn, and no one left to fight
 Em       C                D
I wanna hold you high, and steal your pain.

(coro)
         C     Em5   D     C     Em5
'Cause I'm broken, when I'm open
     D     C   Em5     D    C   Em5
And I don´t feel like I'm strong enough
         C     Em5   D        C     Em5
'Cause I'm broken, when I'm lonesome
     D     C   Em5     D     C           Em5
And I don't feel right when you're gone away

(solo) (Pat Callahan)

  (clean)			   (distorção)

Eb|------------------------------|------0~~~~------------|
Bb|------------------------------|---0--------0~~~-------|
Gb|------------------------------|-----------------------|
Db|-------0h2-/5--4--4-4-5-4-2-2-|-----------------------|
Ab|---0h2------------------------|-----------------------|
Eb|-0----------------------------|-----------------------|


  (clean)			   (distorção)

|----------------------------|---------------------------|
|----------------------------|----3-5-3------------------|
|----------------------------|-2---------2-2/4---4--4----|
|-------0h2-/5--4--4-5-4-0---|---------------------------|
|---0h2----------------------|---------------------------|
|-0--------------------------|---------------------------|


(clean)

|--------------------------------------------------------|
|--------------------------------------------------------|
|--------------------------------------------------------|
|---------0h2-/5~~---------0h2-/5~~---------0h2-/5~~-----|
|-----0h2--------------0h2--------------0h2--------------|
|---0----------------0----------------0------------------|


(refrão)
         C     Em5   D     C     Em5
'Cause I'm broken, when I'm open
     D     C   Em5     D    C   Em5
And I don´t feel like I'm strong enough
         C     Em5   D        C     Em5
'Cause I'm broken, when I'm lonesome
     D     C   Em5     D     C           Em5
And I don't feel right when you're gone away

(agora vem o solo intrumental)


|-15-14-10-15-14-10-10-12-15-14-10-15-14-10-15-14-15-14-10-17-15-14-12-14-|
|-------------------------------------------------------------------------|
|-------------------------------------------------------------------------|
|-------------------------------------------------------------------------|
|-------------------------------------------------------------------------|
|-------------------------------------------------------------------------|



|-15-14-10-15-14-10-15-14-15-14-10-17-15-14-12-14-15-14-10-15-14-10-15-14-|
|-------------------------------------------------------------------------|
|-------------------------------------------------------------------------|
|-------------------------------------------------------------------------|
|-------------------------------------------------------------------------|
|-------------------------------------------------------------------------|



|-15-14-10-17-15-14-12-14-15-14-10-15-14-10-12~~~~~-----------------------|
|-------------------------------------------------------------------------|
|-------------------------------------------------------------------------|
|-------------------------------------------------------------------------|
|-------------------------------------------------------------------------|
|-------------------------------------------------------------------------|


         C     Em5   D     C     Em5
'Cause I'm broken, when I'm open
     D     C   Em5     D    C   Em5
And I don´t feel like I'm strong enough

(repete a intro - guitarra solo e dedilhando no violão)

     Em C                Em C               Em C  D           Em
          You´ve got away, you don't feel me... anymore.

Comentarios 40

  • doniknot doniknot: Publicado en 26/10/2014 19:46

    Pra quem precisa de vídeo aula joga no youtube que um outro site já fez.

  • korky korky: Publicado en 02/07/2014 09:13

    Refrão também fica bacana com C9, Em7 e D4.

  • jlnascimentods jlnascimentods: Publicado en 25/03/2014 21:48

    fraco é aquele de pensamento limitado como o seu darrel, video aula é pra quem precisa e ponto final.

  • Luiz Luiz: Publicado en 06/03/2014 12:42

    Video aula é pros fracos que não se esforçam . A Musica é Muito Fácil

    • Luiz Paulo Luiz Paulo: Publicado en 16/03/2014 00:18

      Então realmente a música é fácil saca,mais tipo eu nunca toquei nada nada,sei as notas da música e tal mais só tenho pegar a batida certa...

  • isaque.santos.52643 isaque.santos.52643: Publicado en 05/12/2013 20:41

    kkk pra q video-aula de broken cara?

  • Lord_Darrell Lord_Darrell: Publicado en 02/11/2013 12:55

    Video aula é pros fracos que não se esforçam .

  • meiolouco meiolouco: Publicado en 29/01/2013 13:47

    É seria uma boa fazer video aula

  • wesleyhildbrand wesleyhildbrand: Publicado en 12/01/2013 20:01

    CifraClub. vamos fazer uma video aula!! essa musica eh boa de mais! =]

  • chmera chmera: Publicado en 13/09/2012 17:19

    Dicas: no lugar de (C),você toca (C9) sem o dedo 4,fica melhor,e toque (D) só na terceira parte da estrofe,no refrão troque o (D) pelo (D9).

Exhibiendo 10 de 40 comentarios Mostrar más ver todo »
Composición: Gary Scruggs / Harlan Rogers / Sameer / Verlon Thompson
Ese no és el compositor? Avisenos.
Contribución: Gabe Lianon Correcciónes: Gigante , coelinho e mais 4 »
Exhibir acordes »
publicidad
cerrar