Smells Like Teen Spirit

Nirvana

 Nirvana
Riff 1 :
G|------------------------------------------------------|
D|------------------------------------------------------|
A|---------1-1-1--------4-4-4---------------------------|
E|-1-1-1--------3/4-4-4------0--------------------------|

Riff 2: [Chorus]
G|-----------------------------------------|
D|-----------------------------------------|
A|-----------1-1-1-1-------------4-4-4-4---|
E|-1-1-1-1-----------3/4-4-4-4----------0--|

Riff 3:


G|------------------------------------------------------|
D|------------------------------------------------------|
A|---------1-1-1--------4-4-4---------------------------|
E|-1-1-1--------3/4-4-4------0--------------------------|

Riff 4:

G|-----------------------------------|
D|-----------------------------------|
A|-----------------------------------|
E|-1-0-1-2-2--------1-0-1--6-6-4-4---|

(Intro - Riff 1)

(Riff 2)
Load up your guns and bring your friends
It's fun to lose and to pretend
She's overbored and self assured
Oh, no, I know a dirty word

Hello, hello,hello,how low
Hello,hello, hello,how low
Hello,hello,hello,how low
Hello,hello,hello.....

(Riff 1)
With the lights out its less dangerous
Here we are now entertain us
I feel stupid, and contagious
Here we are now entertain us
A mulatto, An albino, A mosquito
My libido

(Riff 4-)
Yeah!
Hey......Yay!

(Riff 2)
I'm worse at what I do best
And for this gift I feel blessed
Our little group has always been
And always will until the end

Hello, hello,hello,how low
Hello,hello, hello,how low
Hello,hello,hello,how low
Hello,hello,hello.....

(Riff 1)
With the lights out its less dangerous
Here we are now entertain us
I feel stupid, and contagious
Here we are now entertain us
A mulatto, An albino, A mosquito
My libido

(Riff 4)
Yeah!
Hey......Yay!

(Riff 1 - Solo)

(Riff 3)

(Riff 2)
And I forget just why I taste
Oh yeah, I guess it makes me smile
I found it hard it's hard to find
Well, whatever, nevermind

Hello, hello,hello,how low?
Hello,hello, hello,how low?
Hello,hello,hello,how low?
Hello,hello,hello.....

(Riff 1)
With the lights out it's less dangerous
Here, we are now, entertain us
I feel stupid, and contagious
Here, we are now entertain us
A mulatto, An albino, A mosquito
My libido
A denial (9x) 

G|---------|
D|---------|
A|---------|
E|-1--13/--|

Comentarios 19

  • raneycamisa10 raneycamisa10: Publicado en 28/05/2014 03:05

    Ta errado essa tab!

  • yury.souzamoro yury.souzamoro: Publicado en 08/02/2014 09:19

    acho que tem algum errado na primeira riff ou pode ser eu tambe

  • Felipe Felipe: Publicado en 28/01/2014 15:58

    Vídeo aula para baixo, por favor.

  • Guilherme Guilherme: Publicado en 24/10/2013 23:42

    Eu vo posta uma Tab mais certa ...

  • thailon thailon: Publicado en 30/07/2013 11:46

    podiam fazer uma aula de in bloom !!

  • injured injured: Publicado en 08/06/2013 12:45

    seria uma pena se estivesse faltando algo '-'

  • victor victor: Publicado en 16/04/2013 19:16

    O riff 2 ta esquisito

  • richiemitsuo richiemitsuo: Publicado en 27/01/2013 15:42

    Intro ta um pouco errada.

  • lucasbaixo lucasbaixo: Publicado en 14/10/2012 02:32

    ta errado a intro nao ??

  • matheustar matheustar: Publicado en 17/04/2012 16:42

    pensei q era mais dificil

Exhibiendo 10 de 19 comentarios Mostrar más ver todo »
Composición: Álvaro Gomes / Dave Grohl / Keisha Spivey / Kurt Cobain / Valmont
Ese no és el compositor? Avisenos.
Contribución: valente Correcciónes: william , lolasz e mais 2 »
publicidad
cerrar