Smells Like Teen Spirit

Nirvana

 Nirvana
Riff 1 :
G|------------------------------------------------------|
D|------------------------------------------------------|
A|-------------1-1----------------44--------------------|
E|-1-1-1-xxxx------x-x--444--xxxx-----------------------|

riff 2:
G|------------------------------------------------------|
D|------------------------------------------------------|
A|-------------1-1----------------44--------------------|
E|-1-1-1-xxxx------x-x--444--xxxx-----------------------|

Riff 3:

 
    tocar 9x
G|------------------------------------------------------|
D|------------------------------------------------------|
A|---------11-xx---------4-4-4-4\-----------------------|
E|-1-1--xx-------4-4-xx---------------------------------|

Riff 4:

G|--------------------------------------|
D|--------------------------------------|
A|----------------------------1-1-------|
E|-1-1-0-1-2-2--------1-1-0--1----4-4---|

Comentarios 19

  • raneycamisa10 raneycamisa10: Publicado en 28/05/2014 03:05

    Ta errado essa tab!

  • yury.souzamoro yury.souzamoro: Publicado en 08/02/2014 09:19

    acho que tem algum errado na primeira riff ou pode ser eu tambe

  • Felipe Felipe: Publicado en 28/01/2014 15:58

    Vídeo aula para baixo, por favor.

  • Guilherme Guilherme: Publicado en 24/10/2013 23:42

    Eu vo posta uma Tab mais certa ...

  • thailon thailon: Publicado en 30/07/2013 11:46

    podiam fazer uma aula de in bloom !!

  • injured injured: Publicado en 08/06/2013 12:45

    seria uma pena se estivesse faltando algo '-'

  • victor victor: Publicado en 16/04/2013 19:16

    O riff 2 ta esquisito

  • richiemitsuo richiemitsuo: Publicado en 27/01/2013 15:42

    Intro ta um pouco errada.

  • lucasbaixo lucasbaixo: Publicado en 14/10/2012 02:32

    ta errado a intro nao ??

  • matheustar matheustar: Publicado en 17/04/2012 16:42

    pensei q era mais dificil

Exhibiendo 10 de 19 comentarios Mostrar más ver todo »
Composición: Álvaro Gomes / Dave Grohl / Keisha Spivey / Kurt Cobain / Valmont
Ese no és el compositor? Avisenos.
Contribución: valente Correcciónes: erick , Lunna' e mais 3 »
publicidad
cerrar