Nirvana

All Apologies

19.112 reproducciones
Tono: D
Riff:
  Parte 1               Parte 2

E|---------------------|--------------------------
B|---------------------|--------------------------
G|---------------------|--------------------------
D|---------------------|---------8/10-10-8-7------
A|---7-8-7-8/10-10-8-7-|---7-8-7------------------
E|-9-------------------|-9------------------------


  Parte 3 (igual a 1ª)  Parte 4

E|---------------------|--------------------------
B|---------------------|--------------------------
G|---------------------|---------7/9-9-7----------
D|---------------------|-----------------10-------
A|---7-8-7-8/10-10-8-7-|---7-8-7------------------
E|-9-------------------|-9------------------------


Verso 1:
(Riff)
What else should I be, all apologies
What else should I say, everyone is gay
What else could I write, I don't have the right
What else should I be, all apologies

Refrão:
F#
In the sun
In the sun I feel as one
In the sun
In the sun
 G#
Married
buried

Verso 2:
(Riff)
I wish I was like you, easily amused
Find my nest of salt, everything is my fault
I'll take all the blame, aqua sea foam shame
Sunburn with freeze burn, choking on the ashes of her enemy

Refrão:
F#
In the sun
In the sun I feel as one
In the sun
In the sun
 G#
Married
buried  (2x)

(Riff)
All alone is all we all are...
    Composición: Kurt CobainColaboración y revision:
    • joao
    • Caroline
    • lucasmeborges
    • arche
    • +4

    ¿conseguiste tocar?

    • Gabriel
    • Caio
    • mateus
    • Thiago
    • harold.xd.5
    • Carol
    • sodinha2011
    • •••

    covers

    ¡Grave un vídeo tocando All Apologies y envie para nosotros!

    Ex.: http://www.youtube.com/watch?v=0IvSvIwGdwk
    ver cover de otras canciones »
    0:00 / 0:00

    Capitulos

      Esta versão de cifra não é usada na videoaula. Exiba a cifra correta.
      2 versões de contrabajoreproduccionescontribuición y correción
      2 versões de bateríareproduccionescontribuición y correción
      3 versões de armónicareproduccionescontribuición y correción
      1 versão de partiturasformatodownloadscontribuición
      play/pausefechar subir/bajar velocidad
      6ª cuerda E5ª cuerda A4ª cuerda D3ª cuerda G2ª cuerda B1ª cuerda E
        acordes
        publicidad
        cerrar
        ok