Nothing Else Matters

Metallica

 Metallica Compositor: James Hetfield / Lars Ulrich
Tono: G
		
Introdução 1:

(Violão)

   Em
E|-------------0---------------------------
B|---------0------0------------------------
G|-----0--------------0--------------------
D|-----------------------------------------
A|-----------------------------------------
E|-0---------------------------------------



E|----------0------7--7----------7p0-------
B|-------0-----0---------0-----0-----0-----
G|----0---------------------0-----------0--
D|-----------------------------------------
A|-----------------------------------------
E|--0-----------------0--------------------



E|-0-----7--8--7h8/5--7--5p3/2-------------
B|-------0--0---------0---------5--5-----5-
G|----0-------------------------------5----
D|-----------------------------------------
A|---------------------------------0-------
E|-0---------------------------------------



                                   C
E|-2p0------------------0--0---0---0-------
B|------5-----------5------5---5---5-------
G|---------5-----5---------5---5---5-----5-
D|-----------------------------------------
A|------------0------------0---2---3--3----
E|-----------------------------------------



                        D9
E|-------3p0--------0---0------------------
B|-5----------5-----5---7------------7-----
G|----5----------5--5---7-------7--------7-
D|-----------------------------------------
A|------------------3---5---5--------------
E|-----------------------------------------


                      Harm. .    .

E|-0h5p0-------------------------12--------
B|--------7p0--0h5-----12---12--------0----
G|---------------------12----------------0-
D|-----------------------------------------
A|-----------------------------------------
E|------------------0----------------------



   Em
E|-------------0---------------------------
B|---------0------0------------------------
G|-----0--------------0--------------------
D|-----------------------------------------
A|-----------------------------------------
E|-0---------------------------------------


Introdução 2:

(Violão)

   Em              D        C
E|--------------7--------------------------
B|--------------8--------7-------5---------
G|-----------9-----------7-------5---------
D|--------9-----------7--------5-----------
A|-----7-----------5--------3--------------
E|-0---------------------------------------



   D      C          G      B7
E|-----5-------3---------3-----------------
B|-----7-------5---------3--------4--------
G|---7------5----------4----------0--------
D|-----------------------------1-----------
A|-5------3-----------------2--------------
E|-------------------3---------------------



   Em
E|----0-----------------0------------------
B|-0-----0-----------0-----0---------------
G|----------0-----0-----------0------------
D|-----------------------------------------
A|-----------------------------------------
E|-0-----------0---------------------------


(Guitarra)

   Em                  D         C
E|---------------7-----------5---------3---
B|---------------8-----------7---------5---
G|------------9-----------7---------5------  (2x)
D|---------9-------------------------------
A|------7--------------5---------3---------
E|-0---------------------------------------


   Em                  D           C
E|---------------7-------------------------
B|------------8--------10----------8-------
G|---------9--------------11---------9-----
D|------9--------------------12--------10--
A|-----------------------------------------
E|-0---------------------------------------


   G         B7           Em
E|-----------------------------------------
B|-8---------7-----------------------------
G|---7----------8--------------------------
D|------9----------7----7\5~~--------------
A|-----------------------------------------
E|-----------------------------------------



Primeira Parte:
(Violão)


     Em             D          C9
E|-------3---0------2----------------------
B|-----0-------0---------3-----3----3------
G|---0-----0-----0---------2p0----0--------
D|------------------0--0-------------------
A|-----------------------------3-----------
E|-0----------------------------------3-2--



   Em                 D    D4    C9
E|-------3----0-------2----3-----3---------
B|-----0--------0------------3-----3-------
G|---0------0-----0------------0-----0-----
D|--------------------0--0-----------------
A|-------------------------------3---------
E|-0---------------------------------------



   G     B7        Em
E|-----3-2---2-----0-----0-----------0-----
B|-----3-0-----0-0-----0---0-------0---0---
G|---0---2-----------0-------0---0-------0-
D|-----------------------------------------
A|-------2-2-------------------------------
E|-3---------------0-----------0-----------



E|-----------------------------------------
B|-----------------------------------------
G|-----------------------------------------
D|-----------------------------------------
A|-----------------------------------------
E|-3-2-------------------------------------



E|-------3---0------2----------------------
B|-----0-------0---------3-----3----3------
G|---0-----0-----0---------2p0----0--------
D|------------------0--0-------------------
A|-----------------------------3-----------
E|-0----------------------------------3-2--



   Em                 D    D4    C9
E|-------3----0-------2----3-----3---------
B|-----0--------0------------3-----3-------
G|---0------0-----0------------0-----0-----
D|--------------------0--0-----------------
A|-------------------------------3---------
E|-0---------------------------------------



   G     B7        Em            C   A
E|-----3-2---2-----0-----0-------0---------
B|-----3-0-----0-0-----0---0-----1---2-----
G|---0---2-----------0-------0---0---2-----
D|-------------------------------2---2-----
A|-3-----2-2---------------------3---0-----
E|-3---------------0-----------------------


(Guitarra)


   Em              D     D4     C9
E|-----------3-----2-----3------0---------
B|--------0----------3-----3----3--3------
G|-----0--------0------2-----2--0---------
D|----------------------------------------
A|------------------------------3---------
E|-0----------------------------------3-2-



   Em              D     D4     C9
E|-----------3-----2-----3----------------
B|--------0----------3-----3----3---------
G|-----0--------0------2-----2--0--0------
D|----------------------------------------
A|------------------------------3---------
E|-0----------------------------------3-2-



   Em              D     D4     C5(9)
E|-----------3-----2-----3------3---------
B|--------0----------3-----3----3--3------
G|-----0--------0------2-----2--0-----0---
D|----------------------------------------
A|------------------------------3---------
E|-0--------------------------------------



   G5     B7     Em
E|-----3--2--2h3-0-----0-----------0------
B|-----3--0----------0---0-------0---0----
G|---0----2--------0-------0---0----------
D|----------------------------------------
A|--------2-------------------------------
E|-3-------------0-----------0---------3-2



Em                     D  D4  C9
   So close no matter how    far
Em                         D    D4  C9
   Couldn't be much more from the heart
Em                    D  D4  C5(9)
   Forever trusting who we   are
G5      B7           Em
   And nothing else matters

(Riff 1)
Em                 D     D4  C9
   Never opened myself this way
Em                          D    D4  C9
   Life is ours, we live it our way
Em                          D   D4  C5(9)
   All these words I don't just    say
G5      B7           Em
   And nothing else matters

(Riff 2)
Em                     D   D4  C9
   Trust I seek and I find in you
Em                   D    D4   C9
   Every day for us something new
Em                  D    D4    C5(9)
   Open mind for a different view
G5      B7           Em      ( C  A )
   And nothing else matters
Passagem:

   C       A
E|----------------------------------------
B|-1-------2------------------------------
G|-0-------2------------------------------
D|-2-------2------------------------------
A|-3-------0------------------------------
E|----------------------------------------



Primeiro Refrão:
(Violão)

   D         D4  D  D5(9) D  C    A
E|-2---2-2-2-3---2--0-----2--0----0--------
B|-3---3-3-3-3---3--3-----3--1----2--------
G|-2---2-2-2-2---2--2-----2--0----2--------  (2x)
D|-0---0-0-0-0---0--0-----0--2----2--------
A|---------------------------3----0--------
E|-----------------------------------------



   D
E|-2--2--2---------------------------------
B|-3--3--3---------------------------------
G|-2--2--2---------------------------------
D|-0--0--0---------------------------------
A|-----------------------------------------
E|-----------------------------------------


(Guitarra)

   D5              C       A
E|-----------------------------------------
B|-3---------------1-------2---------------
G|-2---------------0-------2--------------- (2x)
D|-0---------------2-------2---------------
A|-----------------3-------0---------------
E|-----------------------------------------


   P.M.         .  .         .  .

E|-----------------------------------------
B|-----------------------------------------
G|---------------------------------7/9~~---
D|-------5~~----------7~~-------7----------
A|----7------------7---------5-------------
E|-0------------0--------------------------



D         D4   D        D5(9)   D   C  A
   Never ca___red for what    they do
D         D4   D        D5(9)   D    C   A
   Never ca___red for what    they know
D          Em
   But I know

Em                     D  D4  C9
   So close no matter how    far
Em                         D    D4  C9
   Couldn't be much more from the heart
Em                    D  D4  C5(9)
   Forever trusting who we   are
G5      B7           Em     ( C  A )
   And nothing else matters

Segundo Refrão:

D         D4   D        D5(9)   D   C  A
   Never ca___red for what    they do
D         D4   D        D5(9)   D    C   A
   Never ca___red for what    they know
D          Em
   But I know
Primeiro Solo:

(Violão)


E|-12-----14-----15-----17-----8------8---------8----
B|----12-----12-----12-----12----5------5-----5---5--
G|---------------------------------5------5-5--------
D|---------------------------------------------------
A|---------------------------------------------------
E|---------------------------------------------------



E|-----8--------0------0----0-----0------0-7---------
B|---5---5--------1------1----3-----3--------0-------
G|-5-------5\0------0-----------2--------------0-----
D|---------------------------------------------------
A|---------------------------------------------------
E|---------------------------------------------------



E|-7-0------------0----------------------------------
B|-----0--------0------------------------------------
G|-------0----0--------------------------------------
D|---------------------------------------------------
A|---------------------------------------------------
E|----------0----------------------------------------



E|-12-----14-----15-----17-----8------8---------8----
B|----12-----12-----12-----12----5------5-----5---5--
G|---------------------------------5------5-5--------
D|---------------------------------------------------
A|---------------------------------------------------
E|---------------------------------------------------



E|-----8--------0------0----0-----0------0-7---------
B|---5---5--------1------1----3-----3--------0-------
G|-5-------5\0------0-----------2--------------0-----
D|---------------------------------------------------
A|---------------------------------------------------
E|---------------------------------------------------



E|-7-0------------0----------------------------------
B|-----0--------0---0--------------------------------
G|-------0----0-------0------------------------------
D|---------------------------------------------------
A|---------------------------------------------------
E|----------0------------3-2-------------------------


(Guitarra)


E|-15----------17----------19----------20------------
B|------17----------17----------17----------17-------
G|---------------------------------------------------
D|---------------------------------------------------
A|---------------------------------------------------
E|---------------------------------------------------



E|-12------------------------------------------------
B|------13~------------------------------------------
G|---------------------------------------------------
D|---------------------------------------------------
A|---------------------------------------------------
E|---------------------------------------------------



E|-/12-----------/14-------------------12----12------
B|------13------------15----------12-------------12--
G|----------12------------14-------------------------
D|---------------------------------------------------
A|---------------------------------------------------
E|---------------------------------------------------



E|-15----------17----------19----------20------------
B|------17----------17----------17----------17-------
G|---------------------------------------------------
D|---------------------------------------------------
A|---------------------------------------------------
E|---------------------------------------------------



E|-12------------------------------------------------
B|------13~------------------------------------------
G|---------------------------------------------------
D|---------------------------------------------------
A|---------------------------------------------------
E|---------------------------------------------------



E|-/12-----------------------------------------------
B|------13-------------------------------------------
G|----------12-------12---12h14~~--12h14-14b16r14-12~
D|----------------------x----------------------------
A|---------------------------------------------------
E|---------------------------------------------------



E|---------------------------------------------------
B|-12------12------12--------------------------------
G|-14b16---14b16---14b16r14h12---------------12------
D|-----------------------------14~-12-12h14------14~~
A|---------------------------------------------------
E|---------------------------------------------------



(Riff 1)
Em                 D     D4  C9
   Never opened myself this way
Em                          D    D4  C9
   Life is ours, we live it our way
Em                          D   D4  C5(9)
   All these words I don't just    say
G5      B7           Em
   And nothing else matters

(Riff 2)
Em                     D   D4  C9
   Trust I seek and I find in you
Em                   D    D4   C9
   Every day for us something new
Em                  D    D4    C5(9)
   Open mind for a different view
G5      B7           Em      ( C  A )
   And nothing else matters

Terceiro Refrão:

D         D4   D        D5(9)   D   C  A
   Never car___ed for what    they say
D         D4   D       D5(9)   D    C   A
   Never ca___red for games  they play
D         D4   D        D5(9)   D   C  A
   Never ca___red for what    they do
D         D4   D        D5(9)   D    C   A
   Never ca___red for what    they know
D          Em
   And I know, Yeah!

Segundo Solo: E5  D5  C5  ( F#5  G#5  F#5 )
              E5  D5  C5  ( F#5  G#5  F#5 )

              E5  D5  C5  G5  B5  E5
E|---------------------------------------------------
B|-15------15----------------------------------------
G|-14b16~--14b16r14--12~~--12p11--12p11--9--11--7/9~-
D|---------------------------------------------------
A|---------------------------------------------------
E|---------------------------------------------------



E|-----------------12--------12----------------------
B|------------------------------15p12----12----------
G|-12-14-12-14b16------14b16----------15----15-14----
D|---------------------------------------------------
A|---------------------------------------------------
E|---------------------------------------------------



E|---------------------------------------------------
B|--------------14---14-13-12~~----------------------
G|-14h15p14p12--14---14-13-12~~----------------------
D|---------------------------------------------------
A|---------------------------------------------------
E|---------------------------------------------------



E|-/15--14------15--14--15/17--15--14h15p14-12-------
B|----------12----------------------------------12---
G|---------------------------------------------------
D|---------------------------------------------------
A|---------------------------------------------------
E|---------------------------------------------------



E|-15-14---------------------------------------------
B|-------12~~-------------15-------------------------
G|---------------12-14-12-14b16r14p12----12-14b16----
D|------------------------------------14-------------
A|---------------------------------------------------
E|---------------------------------------------------



E|----12---------------------------------------------
B|-12----15--15b17r15p12--15b17~~r--------------------
G|---------------------------------------------------
D|---------------------------------------------------
A|---------------------------------------------------
E|---------------------------------------------------



E|---------------------------------------------------
B|-12h15p12------7b1/4r7--5h7p5~~--------------------
G|---------------------------------------------------
D|---------------------------------------------------
A|---------------------------------------------------
E|---------------------------------------------------



E|---------------------------------------------------
B|--------------------7---8----5~~-------------------
G|---------------------------------------------------
D|---------------------------------------------------
A|---------------------------------------------------
E|---------------------------------------------------

  So close no matter how far


E|---------------------------------------------------
B|------------------------7----8\3~~----------------
G|---------------------------------------------------
D|---------------------------------------------------
A|---------------------------------------------------
E|---------------------------------------------------

  Couldn't be much more from the heart


E|---------------------------------------------------
B|-------------------7--8---12~~~~-------------------
G|---------------------------------------------------
D|---------------------------------------------------
A|---------------------------------------------------
E|---------------------------------------------------

  Forever trusting who we   are
  And nothing else matters

(Violão)

Variação da Primeira Parte:

   G     B7
E|-----3-2---2-----------------------------
B|-----3-0---0-----------------------------
G|---0---2---2-----------------------------
D|-----------------------------------------
A|-------2---2-----------------------------
E|-3---------------------------------------


Parte Final:

   Em
E|-0-----------0---------------------------
B|---------0------0------------------------
G|-----0--------------0--------------------
D|-----------------------------------------
A|-----------------------------------------
E|-0---------------------------------------



E|----------0------7--7--------7p0---------
B|-------0-----0---------0-----0-----0-----
G|----0---------------------0-----------0--
D|-----------------------------------------
A|-----------------------------------------
E|--0-----------------0--------------------



E|-0-----7--8--7h8/5--7--5p3/2-0-----------
B|-------0--0---------0--------------------
G|----0------------------------------------
D|-----------------------------------------
A|-----------------------------------------
E|-0---------------------------------------


---

Riff 1:

(Guitarra 1)

   Em      D   D4  C9     Em        D   D4  C9
E|---------------------------------------------------
B|-8~------10--12--8~---------------10--12--13~------
G|---------------------------------------------------
D|---------------------------------------------------
A|---------------------------------------------------
E|---------------------------------------------------


   Em      D   D4  C5(9)  G         B7  Em
E|---------------------------------------------------
B|-12~-----10--12--8~---------------7~-----5~--------
G|---------------------------------------------------
D|---------------------------------------------------
A|---------------------------------------------------
E|---------------------------------------------------


(Guitarra 2)

   Em      D   D4  C9     Em        D   D4  C9
E|---------------------------------------------------
B|---------------------------------------------------
G|-9~------11--12--9~---------------11--12--12~------
D|---------------------------------------------------
A|---------------------------------------------------
E|---------------------------------------------------


   Em      D   D4  C5(9)  G         B7  Em
E|---------------------------------------------------
B|---------------------------------------------------
G|-12~-----11--12--9~---------------9~---------------
D|---------------------------------------------------
A|---------------------------------------------------
E|---------------------------------------------------


Riff 1:

   Em                        D   D4  C9
E|---------------------------------------------------
B|---------------------------------------------------
G|---------------------------------------------------
D|---------------------------------------------------
A|--------10---10/12--12\10--9--10--7~---------------
E|-0---------------------------------------------3-2-


   Em                        D   D4  C9
E|---------------------------------------------------
B|---------------------------------------------------
G|---------------------------------------------------
D|---------------------------------------------------
A|--------10---10/12--12\10--9~--5~--5~--------------
E|-0---------------------------------------------3-2-


   Em                        D   D4  C5(9)
E|---------------------------------------------------
B|---------------------------------------------------
G|---------------------------------------------------
D|---------------------------------------------------
A|--------10---10/12--12\10--9--10--7~---------------
E|-0---------------------------------------------3---


   G5          B7          Em
E|---------------------------------------------------
B|---------------------------------------------------
G|---------------------------------------------------
D|-------------4-----------2-------------------------
A|-----2-3-2---2---2-3-2---2-------------------------
E|-3-----------------------0-------------------------

Texto Columnas
Alterar tom ½ tono ½ tono
sintonización acordes esconder tabs más »

Comentarios 104

  • felipe.godoyfidelis felipe.godoyfidelis: Publicado en 16/09/2014 23:37

    Incrível! Ótima música e fica até que facil depois de praticar, muito obrigado Cifra Club! :D

  • dezyn dezyn: Publicado en 31/07/2014 12:06

    eh mt massa e eh uma otima musica pra tocar tanto na guitarra quanto no violão!

  • francisco francisco: Publicado en 28/07/2014 10:19

    ainda estou ensaiando

  • evertontiagon evertontiagon: Publicado en 12/06/2014 23:04

    Caramba cadê o segundo solo no violão???

  • Miguel Miguel: Publicado en 07/06/2014 20:31

    um pouco dificil mais com um pouco de pratica fica facil

  • luiz gustavo luiz gustavo: Publicado en 22/05/2014 18:27

    nossa nem e tao dificil achei facil e mt bonita ;)

  • william william: Publicado en 23/04/2014 20:45

    uooo só d olha cansa!

    • camila camila: Publicado en 16/06/2014 10:31

      Comentário removido

  • edson.j.junior.3 edson.j.junior.3: Publicado en 15/03/2014 22:48

    ahh nossa to cansado mas #conseguitocar

  • Edison Edison: Publicado en 02/03/2014 22:21

    Ta no papo e nos dedos, valeu Cifra Club, pelo profissionalismo. APRENDER MUSICA É VIVER EM HARMONIA.

Exhibiendo 10 de 104 comentarios Mostrar más ver todo »
Composición: James Hetfield / Lars Ulrich / Lee Adams / Paulinho Da Viola
Ese no és el compositor? Avisenos.
Contribución: ]|\/|[ateu§ Correcciónes: v.inny , camonaipo e mais 8 »
  1. Sweet Child O' Mine - Guns N' Roses mantiene 3.068 exhibiciones
  2. Wonderwall - Oasis mantiene 2.321 exhibiciones
  3. All Of Me - John Legend mantiene 2.100 exhibiciones
  4. Nothing Else Matters - Metallica mantiene 1.747 exhibiciones
  5. Stairway To Heaven - Led Zeppelin mantiene 1.637 exhibiciones
  6. When I Was Your Man - Bruno Mars mantiene 1.613 exhibiciones
  7. I'm Yours - Jason Mraz mantiene 1.424 exhibiciones
  8. More Than Words - Extreme mantiene 1.402 exhibiciones
  9. The Scientist - Coldplay mantiene 1.359 exhibiciones
  10. Hey Jude - The Beatles mantiene 1.270 exhibiciones
  1. The Beatles- mantiene 22.672 exhibiciones
  2. Guns N' Roses- mantiene 7.544 exhibiciones
  3. Metallica- mantiene 7.037 exhibiciones
  4. One Direction- mantiene 5.157 exhibiciones
  5. Coldplay- mantiene 5.142 exhibiciones
  6. Red Hot Chili Peppers- mantiene 5.093 exhibiciones
  7. Nirvana- mantiene 5.053 exhibiciones
  8. Oasis- mantiene 4.971 exhibiciones
  9. Bruno Mars- mantiene 4.873 exhibiciones
  10. Ed Sheeran- mantiene 4.165 exhibiciones
Exhibir acordes »

Acordes y tabs

Aprenda

Studio Sol

©1996 - 2014 Cifra Club · el primero, mayor y más accedido del Brasil · 340 mil músicas · 6.3 millones de personas registradas

publicidad
cerrar