Battery

Metallica

 Metallica
Tono: A
		
Riff 1:

E|-|-----------------------------------|-----------------------------------------|
B|-|-----------------------------------|-----------------------------------------|
G|-|-----------------2-------2---------|-----------------------------------------|
D|-|---3----------0--2-------2----0----|-----------------------------------------|
A|-|---2-------------------------------|-----5-----------------------------------|
E|-|-----------------------------------|-----5-----------------------------------|



E|-|-----------------------------------|-----------------------------------------|
B|-|-----------------------------------|-----------------------------------------|
G|-|----------------2---------2--------|-----------------------------------------|
D|-|--3-----------0-2---------2---0----|-----------------------------------------|
A|-|--2--------------------------------|----5------------------------------------|
E|-|-----------------------------------|----5------------------------------------|



E|-|-----------------------------------|-------------------------------------|
B|-|--3--5------------3-----5----------|--3--5--------------------5--3~~~~~~~|
G|-|--4--5--5---------4-----5--5~~~~~~~~--4--5--5-----4-----------5--4~~~~~~~|
D|-|--------7------------------7~~~~~~~~--------7-----5----------------------|
A|-|-----------------------------------|-------------------------------------|
E|-|-----------------------------------|-------------------------------------|



E|-|-----------------------------------|-------------------------------------|
B|-|--3--5--------3----3^5^3-----------|--3--5--------------------5--3-------|
G|-|--4--5--5-----4----4^5^4---5~~~~~~~~~-4--5--5-----4-----------5--4-------|
D|-|--------7------------------7~~~~~~~~~-------7-----5----------------------|
A|-|-----------------------------------|-------------------------------------|
E|-|-----------------------------------|-------------------------------------|



E|-|-----------------------------------|-------------------------------------|
B|-|--3--5------------3-----5----------|----3--5--------------------5--3~~~~~|
G|-|--4--5--5---------4-----5--5~~~~~~~~----4--5--5-----4-----------5--4~~~~~|
D|-|--------7------------------7~~~~~~~~----------7-----5--------------------|
A|-|-----------------------------------|-------------------------------------|
E|-|-----------------------------------|-------------------------------------|



E|-|--3--5------------3-----5----------|----3--5--------------------5--3~~~~-|
B|-|--------5------------------5~~~~~~~~-5--------5-----3--------------------|
G|-|-----------------------------------|-------------------------------------|
D|-|-----------------------------------|-------------------------------------|
A|-|-----------------------------------|-------------------------------------|
E|-|-----------------------------------|-------------------------------------|



E|-|-----------------------------------|-------------------------------------|
B|-|--3--5--------3----3^5^3-----------|--3--5--------------------5--3-------|
G|-|--4--5--5-----4----4^5^4---5~~~~~~~~~-4--5--5-----4-----------5--4-------|
D|-|--------7------------------7~~~~~~~~~-------7-----5----------------------|
A|-|-----------------------------------|-------------------------------------|
E|-|-----------------------------------|-------------------------------------|



E|-|--3--5--------3----3^5^3-----------|----3--5--------------------5--3~~~~~|
B|-|--------5------------------5~~~~~~~~-5--------5-----3--------------------|
G|-|-----------------------------------|-------------------------------------|
D|-|-----------------------------------|-------------------------------------|
A|-|-----------------------------------|-------------------------------------|
E|-|-----------------------------------|-------------------------------------|



E|-|-----------------------------------|-------------------------------------|
B|-|----3-5------------3-----5---------|----3-5---------------------5--3~~~~~|
G|-|----4-5--5~~~~~~---4-----5--5~~~~~~~~---4-5--5-----4~~~~~~~~----5--4~~~~~|
D|-|---------7~~~~~~------------7~~~~~~~~--------7-----5~~~~~~~~-------------|
A|-|-----------------------------------|-------------------------------------|
E|-|-----------------------------------|-------------------------------------|


     E5            F5                   D/F#            G5
E|-|-----------------------------------|-------------------------------------|
B|-|-----------------------------------|-------------------------------------|
G|-|-----------------------------------|-------------------------------------|
D|-|-2--2-2--2-2---3-------------------|----------------5--------------------|
A|-|-2--2-2--2-2---3-------------------|-5--5-5--5-5----5--------------------|
E|-|-0--0-0--0-0---1-------------------|-2--2-2--2-2----3--------------------|



E|-|----3-5-----------3-----5----------|----3-5---------------------5--3~~~~-|
B|-|--------5~~~~--------------5~~~~~~~~-5-------5---3~~~--------------------|
G|-|-----------------------------------|-------------------------------------|
D|-|-----------------------------------|-------------------------------------|
A|-|-----------------------------------|-------------------------------------|
E|-|-----------------------------------|-------------------------------------|



E|-|-----------------------------------|-------------------------------------|
B|-|----3-5------------3-----5---------|----3-5---------------------5--3~~~~~|
G|-|----4-5--5~~~~~~---4-----5--5~~~~~~~~---4-5--5-----4~~~~~~~~----5--4~~~~~|
D|-|---------7~~~~~~------------7~~~~~~~~--------7-----5~~~~~~~~-------------|
A|-|-----------------------------------|-------------------------------------|
E|-|-----------------------------------|-------------------------------------|



E|-|----3-5-----------3-----5----------|----3-5---------------------5--3~~~~-|
B|-|--------5~~~~--------------5~~~~~~~~-5-------5---3~~~--------------------|
G|-|-----------------------------------|-------------------------------------|
D|-|-----------------------------------|-------------------------------------|
A|-|-----------------------------------|-------------------------------------|
E|-|-----------------------------------|-------------------------------------|



                                            E5        B5      G5       B/D#
E|-|-----------------------------------||------------------------------------|
B|-|----3-5------------------5--3~~~~--||------------------------------------|
G|-|----4-5--5---------4~~~--5--4~~~~--||------------4-----------------------|
D|-|---------7---------5~~~------------||---2--------4--------5--------4-----|
A|-|-----------------------------------||---2--------2--------5--------6-----|
E|-|-----------------------------------||---0-----------------3--------------|



E|-|----3-5------------------5--3~~~~~-||
B|-|--------5--5~~~--------------------||
G|-|-----------------------------------||
D|-|-----------------------------------||
A|-|-----------------------------------||
E|-|-----------------------------------||


Riff 2:
                             Bb5    A5                              Em    B/D#
   P.M........................             P.M.....................

E|-|--------------------------------------|----------------------------------|
B|-|*-------------------------------------|----------------------------------|
G|-|--------------------------------------|----------------------------------|
D|-|-----------------------------8--8--7--|---------------------------5--5--4|
A|-|*----------------------------8--8--7--|---------------------------7--7--6|
E|-|--0-----0--0--0-----0--0--0--6--6--5--|--0----0--0--0----0--0--0---------|

    Em                        Bb5    A5      F#5    G5         Ab5
         P.M..................            P.M       P.M.

E|-|--------------------------------------|----------------------------------|
B|-|--------------------------------------|----------------------------------|
G|-|--------------------------------------|----------------------------------|
D|-|--5--------------------------8--8--7--|----4----5-----5-----6------------|
A|-|--7--------------------------8--8--7--|----4----5-----5-----6------------|
E|-|--------0--0--0-----0--0--0--6--6--5--|-0--2----3--0--3-----4------------|

   P.M........................             P.M.......................

E|-|--------------------------------------|----------------------------------|
B|-|--------------------------------------|----------------------------------|
G|-|--------------------------------------|----------------------------------|
D|-|-----------------------------8--8--7--|---------------------------5--5--4|
A|-|-----------------------------8--8--7--|---------------------------7--7--6|
E|-|--0-----0--0--0-----0--0--0--6--6--5--|--0----0--0--0----0--0--0---------|


     E5                         Bb5    A5    E5
E|-|--------------------------------------|----------------------------------|
B|-|--------------------------------------|----------------------------------|
G|-|-----------------------------3--3--2--|----------------------------------|
D|-|--2--------------------------3--3--2--|--2-------------------------------|
A|-|--2--------------------------1--1--0--|--2-------------------------------|
E|-|--0-----------------------------------|--0-------------------------------|

      Em                       Bb   5 A5   Bb5 A5          
         P.M..................

E|-|--------------------------------------|---------------------------------||
B|-|--------------------------------------|-------------------------------*-||
G|-|--------------------------------------|---------------------------------||
D|-|--5--------------------------8--8--7--|--8--7-------7------7------7-----||
A|-|--7--------------------------8--8--7--|--8--7-------7------7------7---*-||
E|-|--------0--0--0-----0--0--0--6--6--5--|--6--5-------5------5------5-----||



E|-|--------------------------------------|---------------------------------||
B|-|-----R--------------------------------|---------------------------------||
G|-|---------E|----------------------------|---------------------------------||
D|-|--------------S-----------------------|--8--7-------7------7------7-----||
A|-|------------------T-------------------|--8--7-------7------5------7-----||
E|-|--------------------------------------|--6--5-------5------5------5-----||


     E5                   G5                    A5           F5     B/D#
E|-|--------------------|---------------------|------------------------------|
B|-|--------------------|---------------------|------------------------------|
G|-|--------------------|---------------------|--2---------------------------|
D|-|--2-----------------|--5------------------|--2------------3--3---4-------|
A|-|--2-----------------|--5------------------|--0------------3--3---6-------|
E|-|--0-----------------|--3------------------|---------------1--1-----------|

                                                            P.M..
Verso 1:

E|-|--------------------------------------|----------------------------------|
B|-|--------------------------------------|----------------------------------|
G|-|--------------------------------------|----------------------------------|
D|-|-----------------------------8--8--7--|---------------------------5--5--4|
A|-|-----------------------------8--8--7--|---------------------------7--7--6|
E|-|--0-----0--0--0-----0--0--0--6--6--5--|--0----0--0--0----0--0--0---------|

     Lashing out  the action                Returning  the  reaction
    Em                        Bb5    A5      F#5    G5         Ab5
         P.M..................            P.M       P.M.

E|-|--------------------------------------|----------------------------------|
B|-|--------------------------------------|----------------------------------|
G|-|--------------------------------------|----------------------------------|
D|-|--5--------------------------8--8--7--|----4----5-----5-----6------------|
A|-|--7--------------------------8--8--7--|----4----5-----5-----6------------|
E|-|--------0--0--0-----0--0--0--6--6--5--|-0--2----3--0--3-----4------------|

     Weak are ripped  and  torn   away

E|-|--------------------------------------|----------------------------------|
B|-|--------------------------------------|----------------------------------|
G|-|--------------------------------------|----------------------------------|
D|-|-----------------------------8--8--7--|---------------------------5--5--4|
A|-|-----------------------------8--8--7--|---------------------------7--7--6|
E|-|--0-----0--0--0-----0--0--0--6--6--5--|--0----0--0--0----0--0--0---------|

    Hy    pno    tiz     ing     power,     crushing      all    that cower
    Em                        Bb5    A5      F#5    G5         Ab5
         P.M..................            P.M       P.M.

E|-|--------------------------------------|----------------------------------|
B|-|--------------------------------------|----------------------------------|
G|-|--------------------------------------|----------------------------------|
D|-|--5--------------------------8--8--7--|----4----5-----5-----6------------|
A|-|--7--------------------------8--8--7--|----4----5-----5-----6------------|
E|-|--------0--0--0-----0--0--0--6--6--5--|-0--2----3--0--3-----4------------|

     Battery    is     here    to stay

Refrão:

     E5                       G5                    A5           F5     B/D#
E|-|------------------------|---------------------|--------------------------|
B|-|------------------------|---------------------|--------------------------|
G|-|------------------------|---------------------|--2-----------------------|
D|-|--2---------------------|--5------------------|--2-----------3--3---4----|
A|-|--2---------------------|--5------------------|--0-----------3--3---6----|
E|-|--0---------------------|--3------------------|--------------1--1--------|

Smashing through the boundries,lunacy has found me cannot stop the battery
   P.M........................             P.M.....................

E|-|--------------------------------------|----------------------------------|
B|-|--------------------------------------|----------------------------------|
G|-|--------------------------------------|----------------------------------|
D|-|-----------------------------8--8--7--|---------------------------5--5--4|
A|-|-----------------------------8--8--7--|---------------------------7--7--6|
E|-|--0-----0--0--0-----0--0--0--6--6--5--|--0----0--0--0----0--0--0---------|

    Em                        Bb5    A5      F#5    G5         Ab5
         P.M..................            P.M       P.M.

E|-|--------------------------------------|----------------------------------|
B|-|--------------------------------------|----------------------------------|
G|-|--------------------------------------|----------------------------------|
D|-|--5--------------------------8--8--7--|----4----5-----5-----6------------|
A|-|--7--------------------------8--8--7--|----4----5-----5-----6------------|
E|-|--------0--0--0-----0--0--0--6--6--5--|-0--2----3--0--3-----4------------|


     E5                    G5                  A5           F5     B/D#
E|-|--------------------|---------------------|------------------------------|
B|-|--------------------|---------------------|------------------------------|
G|-|--------------------|---------------------|--2---------------------------|
D|-|--2-----------------|--5------------------|--2------------3--3---4-------|
A|-|--2-----------------|--5------------------|--0------------3--3---6-------|
E|-|--0-----------------|--3------------------|---------------1--1-----------|

  Pounding out agression,    turned into obsession cannot  kill  the    battery
   P.M.......................             P.M.......................

E|-|-------------------------------------|-----------------------------------|
B|-|-------------------------------------|-----------------------------------|
G|-|-------------------------------------|-----------------------------------|
D|-|----------------------------8--8--7--|----------------------------5--5--4|
A|-|----------------------------8--8--7--|----------------------------7--7--6|
E|-|--0-----0--0--0----0--0--0--6--6--5--|--0-----0--0--0----0--0--0---------|


   P.M.......................             P.M.......................

E|-|-------------------------------------|-----------------------------------|
B|-|-------------------------------------|-----------------------------------|
G|-|-------------------------------------|-----------------------------------|
D|-|----------------------------8--8--7--|----------------------------5--5--4|
A|-|----------------------------8--8--7--|----------------------------7--7--6|
E|-|--0-----0--0--0----0--0--0--6--6--5--|--0-----0--0--0----0--0--0---------|

   Cannot   kill   the     family,          battery     has       grounded
   P.M.......................             P.M......................

E|-|-------------------------------------|-----------------------------------|
B|-|-------------------------------------|-----------------------------------|
G|-|-------------------------------------|-----------------------------------|
D|-|----------------------------8--8--7--|----------------------------5--5--4|
A|-|----------------------------8--8--7--|----------------------------7--7--6|
E|-|--0----0--0--0-----0--0--0--6--6--5--|--0-----0--0--0-----0--0--0--------|

          P.M................

  Em                            Bb5    A5
E|-|--------------------------------------|
B|-|--------------------------------------|
G|-|--------------------------------------|
D|-|--5--------------------------8--8--7--|
A|-|--7--------------------------8--8--7--|
E|-|--------0--0--0-----0--0--0--6--6--5--|


                                 Bb5  F5
E|-|--------------------------------------|
B|-|--------------------------------------|
G|-|--------------------------------------|
D|-|--5--------------------------8--8--3--|
A|-|--7--------------------------8--8--3--|
E|-|--------0--0--0-----0--0--0--6--6--1--|

                                Bat-ter -
   P.M.......................             P.M......................

E|-|-------------------------------------|-----------------------------------|
B|-|-------------------------------------|-----------------------------------|
G|-|-------------------------------------|-----------------------------------|
D|-|----------------------------8--8--7--|----------------------------5--5--4|
A|-|----------------------------8--8--7--|----------------------------7--7--6|
E|-|--0-----0--0--0----0--0--0--6--6--5--|--0-----0--0--0----0--0--0---------|

    - y !
 Em                            Bb5    A5
        P.M..................

E|-|--------------------------------------|
B|-|--------------------------------------|
G|-|--------------------------------------|
D|-|--5--------------------------8--8--7--|
A|-|--7--------------------------8--8--7--|
E|-|--------0--0--0-----0--0--0--6--6--5--|


     Bb5      F5       E5
E|-|--------------------------------------|
B|-|--------------------------------------|
G|-|--3-----------------------------------|
D|-|--3--------3-------2------------------|
A|-|--1--------3-------2------------------|
E|-|-----------1-------0------------------|

     Bat      ter     y !

    E5                                      G5
E|-|---------------------------------------|------------------------------------------|
B|-|---------------------------------------|------------------------------------------|
G|-|---------------------------------------|------------------------------------------|
D|-|2--------------------------------------|5-----------------------------------------|
A|-|2--------------------------------------|5-----------------------------------------|
E|-|0--------------------------------------|3-----------------------------------------|



E|-|--/12-17^12-15^12-14^12--12-17^12-15^12|14^12--12-17^12-15^12-14^12--12-17^12-15^12|
B|-|15---------------------15--------------|-----15--------------------15--------------|
G|-|---------------------------------------|-------------------------------------------|
D|-|---------------------------------------|-------------------------------------------|
A|-|---------------------------------------|-------------------------------------------|
E|-|---------------------------------------|-------------------------------------------|

                       P.M..

     A5                 F5       B/D#
E|-|-----------------------------------|
B|-|-----------------------------------|
G|-|-0---------------------------------|
D|-|-2------------------3--3---4-------|
A|-|-2------------------3--3---6-------|
E|-|--------------------1--1-----------|



E|-|-14^12------------------------/-)Full
B|-|------14^12-14^12------------/-/---|
G|-|-----------------14-12-----14-/----|
D|-|-----------------------14--14------|
A|-|-----------------------------------|
E|-|-----------------------------------|


Verso 2:

E|-|-----------------------------------|
B|-|--12\------------------------------|
G|-|-----------------------------------|
D|-|-----------------------------------|
A|-|-----------------------------------|
E|-|-----------------------------------|


   |Gtr.1                      Bb5    A5                            Em    B/D#
  |P.M......................              P.M......................
E|-|------------------------------------|------------------------------------|
B|-|------------------------------------|------------------------------------|
G|-|------------------------------------|------------------------------------|
D|-|---------------------------8--8--7--|-----------------------------5--5--4|
A|-|---------------------------8--8--7--|-----------------------------7--7--6|
E|-|--0----0--0--0----0--0--0--6--6--5--|--0-----0--0--0-----0--0--0---------|

    Crushing all       de - ceiv - ers     mashing     non - be - liev - ers
    Em                        Bb5    A5      F#5    G5         Ab5
         P.M..................            P.M       P.M.

E|-|--------------------------------------|----------------------------------|
B|-|--------------------------------------|----------------------------------|
G|-|--------------------------------------|----------------------------------|
D|-|--5--------------------------8--8--7--|----4----5-----5-----6------------|
A|-|--7--------------------------8--8--7--|----4----5-----5-----6------------|
E|-|--------0--0--0-----0--0--0--6--6--5--|-0--2----3--0--3-----4------------|

    nev -   er -   ending    po  -  ten   -  cy
                             Bb5    A5                              Em   B/D#
   P.M.......................             P.M......................

E|-|-------------------------------------|-----------------------------------|
B|-|-------------------------------------|-----------------------------------|
G|-|-------------------------------------|-----------------------------------|
D|-|----------------------------8--8--7--|----------------------------5--5--4|
A|-|----------------------------8--8--7--|----------------------------7--7--6|
E|-|--0-----0--0--0----0--0--0--6--6--5--|--0----0--0--0-----0--0--0---------|

     Hungry       violence       seeker      feeding     off  the      weaker
    Em                        Bb5    A5      F#5    G5         Ab5
         P.M..................            P.M       P.M.

E|-|--------------------------------------|----------------------------------|
B|-|--------------------------------------|----------------------------------|
G|-|--------------------------------------|----------------------------------|
D|-|--5--------------------------8--8--7--|----4----5-----5-----6------------|
A|-|--7--------------------------8--8--7--|----4----5-----5-----6------------|
E|-|--------0--0--0-----0--0--0--6--6--5--|-0--2----3--0--3-----4------------|

    breeding       on      in - san - i -   ty  !

Refrão:

     E5                      G5                   A5           F5     B/D#
E|-|-----------------------|--------------------|----------------------------|
B|-|-----------------------|--------------------|----------------------------|
G|-|-----------------------|--------------------|--2-------------------------|
D|-|--2--------------------|--5-----------------|--2------------3--3---4-----|
A|-|--2--------------------|--5-----------------|--0------------3--3---6-----|
E|-|--0--------------------|--3-----------------|---------------1--1---------|

Smashing through the boundries,lunacy has found me cannot stop the battery
   P.M......................             P.M......................

E|-|-------------------------------------|-----------------------------------|
B|-|-------------------------------------|-----------------------------------|
G|-|-------------------------------------|-----------------------------------|
D|-|----------------------------8--8--7--|----------------------------5--5--4|
A|-|----------------------------8--8--7--|----------------------------7--7--6|
E|-|--0-----0--0--0----0--0--0--6--6--5--|--0-----0--0--0----0--0--0---------|

    Em                        Bb5    A5      F#5    G5         Ab5
         P.M..................            P.M       P.M.

E|-|--------------------------------------|----------------------------------|
B|-|--------------------------------------|----------------------------------|
G|-|--------------------------------------|----------------------------------|
D|-|--5--------------------------8--8--7--|----4----5-----5-----6------------|
A|-|--7--------------------------8--8--7--|----4----5-----5-----6------------|
E|-|--------0--0--0-----0--0--0--6--6--5--|-0--2----3--0--3-----4------------|


     E5                     G5                    A5           F5     B/D#
E|-|----------------------|---------------------|----------------------------|
B|-|----------------------|---------------------|----------------------------|
G|-|----------------------|---------------------|--2-------------------------|
D|-|--2-------------------|--5------------------|--2------------3--3---4-----|
A|-|--2-------------------|--5------------------|--0------------3--3---6-----|
E|-|--0-------------------|--3------------------|---------------1--1---------|

  Pounding out agression,  turned into obsession cannot  kill  the   battery
   P.M........................            P.M.....................

E|-|-------------------------------------|-----------------------------------|
B|-|-------------------------------------|-----------------------------------|
G|-|-------------------------------------|-----------------------------------|
D|-|----------------------------8--8--7--|----------------------------5--5--4|
A|-|----------------------------8--8--7--|----------------------------7--7--6|
E|-|--0----0--0--0-----0--0--0--6--6--5--|--0-----0--0--0----0--0--0---------|

   P.M........................             P.M.......................

E|-|-------------------------------------|-----------------------------------|
B|-|-------------------------------------|-----------------------------------|
G|-|-------------------------------------|-----------------------------------|
D|-|----------------------------8--8--7--|----------------------------5--5--4|
A|-|----------------------------8--8--7--|----------------------------7--7--6|
E|-|--0-----0--0--0----0--0--0--6--6--5--|--0----0--0--0-----0--0--0---------|

   Cannot   kill  the     family,         battery     has       grounded
   P.M........................             P.M.......................

E|-|--------------------------------------|------------------------------------|
B|-|--------------------------------------|------------------------------------|
G|-|--------------------------------------|------------------------------------|
D|-|-----------------------------8--8--7--|-----------------------------5--5--4|
A|-|-----------------------------8--8--7--|-----------------------------7--7--6|
E|-|--0-----0--0--0-----0--0--0--6--6--5--|--0-----0--0--0-----0--0--0---------|

     me !
 Em                            Bb5    A5
         P.M..................

E|-|--------------------------------------|
B|-|--------------------------------------|
G|-|--------------------------------------|
D|-|--5--------------------------8--8--7--|
A|-|--7--------------------------8--8--7--|
E|-|--------0--0--0-----0--0--0--6--6--5--|


                                Bb5  F5
E|-|--------------------------------------|
B|-|--------------------------------------|
G|-|--------------------------------------|
D|-|--5--------------------------8--8--3--|
A|-|--7--------------------------8--8--3--|
E|-|--------0--0--0-----0--0--0--6--6--1--|

                                Bat-ter -
   P.M.......................             P.M......................

E|-|-------------------------------------|-----------------------------------|
B|-|-------------------------------------|-----------------------------------|
G|-|-------------------------------------|-----------------------------------|
D|-|----------------------------8--8--7--|----------------------------5--5--4|
A|-|----------------------------8--8--7--|----------------------------7--7--6|
E|-|--0-----0--0--0----0--0--0--6--6--5--|--0-----0--0--0----0--0--0---------|

    - y !
 Em                            Bb5    A5
         P.M..................

E|-|--------------------------------------|
B|-|--------------------------------------|
G|-|--------------------------------------|
D|-|--5--------------------------8--8--7--|
A|-|--7--------------------------8--8--7--|
E|-|--------0--0--0-----0--0--0--6--6--5--|


     Bb5      F5       E5                    E5
E|-|--------------------------------------|---------------------------------|
B|-|--------------------------------------|---------------------------------|
G|-|--3-----------------------------------|---------------------------------|
D|-|--3--------3-------2------------------|--2------------------------------|
A|-|--1--------3-------2------------------|--2------------------------------|
E|-|-----------1-------0------------------|--0------------------------------|

     Bat      ter     y !
Interludio:

      E5                    G5                 P.M     E5
E|-|---------|-----------|------------|--------------|-----------|----------|
B|-|---------|-----------|------------|--------------|-----------|----------|
G|-|---------|-----------|------------|--------------|-----------|----------|
D|-|--2------|-(2)-------|--5---------|-(5)---5----5-|-2---------|-(2)------|
A|-|--2------|-(2)-------|--5---------|-(5)---5----5-|-2---------|-(2)------|
E|-|--0------|-(0)-------|--3---------|-(3)---3--3-3-|-0---------|-(0)------|



E|-|----------------------------------|-------------------------------------|
B|-|----------------------------------|-------------------------------------|
G|-|----------------------------------|-------------------------4----4------|
D|-|--5-------------------------------|--(5)--------------------4----4------|
A|-|--5-------------------------------|--(5)--------------------2----2------|
E|-|--3-------------------------------|--(3)--------------------------------|


      E5                        C5  D5   G5                         A5   B5
E|-|------------------|-----------------|-------------------|-----------------||
B|-|*-----------------|-----------------|-------------------|----------------*||
G|-|------------------|---------5---7---|-------------------|-------2-----4---||
D|-|--2-----2-2---x-x-|-2-2---2-5---7---|-5-------5-5---x-x-|-5-5---2-----4---||
A|-|*-2-----2-2---x-x-|-2-2---2-3---5---|-5-------5-5---x-x-|-5-5---0-----2--*||
E|-|--0-----0-0---x-x-|-0-0---0---------|-3-------3-3---x-x-|-3-3-------------||


    P.M...........................           P.M.......................

E|-|------------------|-----------------|-------------------|-----------------||
B|-|*-----------------|-----------------|-------------------|----------------*||
G|-|------------------|-----------------|-------------------|-----------------||
D|-|------4-5---------|-----5-----------|-------4-5---------|-----5---4-5-7---||
A|-|*-7-7-----7-----7-|-7-----7-3-3-5/7-|-7^5-------7-----7-|---7---7--------*||
E|-|------------------|-----------------|-----7-------------|-----------------||


     E5                E5    G5    B5    G5                 Bb5 A5
E|-|-----------------|-----------------|----------|---------|----------------||
B|-|-----------------|-----------------|----------|---------|-----r---r---r--||
G|-|-----------------|-------------4---|----------|---------|-3-2-e-2-e-2-e-2||
D|-|-2-----2-2---x-x-|-2-----5-----4---|-5--------|-(5)-----|-3-2-r-2-s-2-s-2||
A|-|-2-----2-2---x-x-|-2-----5-----2---|-5--------|-(5)-----|-1-0-t-0-t-0-t-0||
E|-|-0-----0-0---x-x-|-0-----3---------|-3--------|-(3)-----|----------------||

   P.M.......

E|-|-----------------|-----------------|----------|---------|----------------||
B|-|-----------------|-----------------|----------|---------|-R--------------||
G|-|-----------------|-------------4/////7--------|-(7)-----|-----E|----------||
D|-|-----4-5---------|-2---------------|----------|---------|---------S------||
A|-|-7-7-----7-------|-------2---------|----------|---------|-------------T--||
E|-|-----------------|-----------------|----------|---------|----------------||

  P.M.............          P.M        P.M            P.M...............

                    B5 Bb5 A5   B5 Bb5 A5  B5 Bb5 A5                        B5 Bb5 A5
E|-|------------------------|-------------------------|-------------------------------|
B|-|------------------------|-------------------------|-------------------------------|
G|-|-----------------4--3--2|----4--3--2---4--3--2----|----------------------4--3--2--|
D|-|-----------------4--3--2|----4--3--2---4--3--2----|----------------------4--3--2--|
A|-|-----------------2--1--0|----2--1--0---2--1--0----|----------------------2--1--0--|
E|-|-0--0-0-0--0-0-0--------|-0----------0------------|-0---0-0-0---0-0-0-------------|



E|-|---/-)Full-/-)Full---/-)Full/-)Full/-)Full-------|--------------------------------|
B|-|-14-/----14-/------14-/-|-14-/---14-/-14---------|-------------15^12-15^12-15-12--|
G|-|-14------14--------14---|-14-----14---14-14-12^14|-12-12^14^12------------------15|
D|-|------------------------|------------------------|--------------------------------|
A|-|------------------------|------------------------|--------------------------------|
E|-|------------------------|------------------------|--------------------------------|

   P.M

          B5  Bb5        A5  G5   P.M............. B5 Bb5 A5
E|-|-----------------------------|---------------------------|
B|-|---------r---r---------r-----|---------------------------|
G|-|-------4-e-3-e|-------2-e|-----|------------------4--3--2--|
D|-|-------4-s-3-s-------2-s-5---|------------------4--3--2--|
A|-|-------2-t-1-t-------0-t-5---|------------------2--1--0--|
E|-|-0-----------------------3---|-0--0-0-0--0-0-0-----------|



E|-|--------------------------/--|----15---------------------|
B|-|-12^15^12--12^15^12--12-15---|---------------------------|
G|-|---------15--------15--------|---------------------------|
D|-|-----------------------------|---------------------------|
A|-|-----------------------------|---------------------------|
E|-|-----------------------------|---------------------------|


      B5  Bb5  A5   B5  Bb5  A5      P.M..............      B5   Bb5  A5
E|-|-------------------------------|------------------------------------------|
B|-|-------------------------------|------------------------------------------|
G|-|---4---3---2----4----3----2----|-------------------------4----3----2------|
D|-|---4---3---2----4----3----2----|-------------------------4----3----2------|
A|-|---2---1---0----2----1----0----|-------------------------2----1----0------|
E|-|-0-----------0-----------------|--0--0-0-0----0-0-0-----------------------|



E|-|-15-/------------15------------|------------------------------------------|
B|-|-15---------17-17--17^15--17-15|-17---15-12--12-15-12^15^12--12^15^12-----|
G|-|------------------------16-----|---/16-----14--------------14--------14---|
D|-|-------------------------------|------------------------------------------|
A|-|-------------------------------|------------------------------------------|
E|-|-------------------------------|------------------------------------------|

                                           P.M.                  P.M.

    P.M.....................   B5  Bb5  A5        B5    Bb5    A5     B5   Bb5   A5
E|-|---------------------------------------|-------------------------------------------|
B|-|---------------------------------------|-------------------------------------------|
G|-|---------------------------4----3----2-|-------4-----3-----2------4-----3-----2----|
D|-|---------------------------4----3----2-|-------4-----3-----2------4-----3-----2----|
A|-|---------------------------2----1----0-|-------2-----1-----0------2-----1-----0----|
E|-|-0-----0-0---0-----0-0-0---------------|-0---------------------0-------------------|



E|-|---------------------------------------|-------------------------------------------|
B|-|---------------------------------------|-------------------------------------------|
G|-|-4^2^0-4^2^0-4^2^0--4-----4^2^0-2^4----|-4^2^0-4^2^0-4^2^0-2^4-0--4^2^0-4^2^0-4^2^0|
D|-|-----------------------0-------------0-|-------------------------------------------|
A|-|---------------------------------------|-------------------------------------------|
E|-|---------------------------------------|-------------------------------------------|


                                  B5    Bb5     A5
E|-|---------------------------------------------------|
B|-|---------------------------------------------------|
G|-|-------------------------------4-----3------2------|
D|-|-------------------------------4-----3------2------|
A|-|-------------------------------2-----1------0------|
E|-|-0-----0--0--0-----0--0--0-------------------------|



E|-|---------------------------------------------------|
B|-|---------------------------------------------------|
G|-|-4^2^0-4^2^0-6^4^0-6^4^0-8^6^0-8^6^0-10^8^0-10^8^0-|
D|-|---------------------------------------------------|
A|-|---------------------------------------------------|
E|-|---------------------------------------------------|


            B5       Bb5     A5            G5    F5 P.M..........       B5    Bb5  A5
E|-|------------------------------------------------|----------------------------------|
B|-|---------------------------------r---------r----|----------------------------------|
G|-|---------4-------3-------2-------e|---------e|----|--------------------4-----3----2--|
D|-|---------4-------3-------2-------s------5--s--3-|--------------------4-----3----2--|
A|-|---------2-------1-------0-------t------5--t--3-|--------------------2-----1----0--|
E|-|-0--------------------------------------3-----1-|-0--0-0-0--0-0-0------------------|



E|-|------------------------------------------------|-12-15-14-12^14^12--12------------|
B|-|-12^10^0-12^10^0-12^10^0-12^10^0-14\----r-------|------------------15--15-12^14^12-|
G|-|----------------------------------------e|-------|----------------------------------|
D|-|----------------------------------------s-------|----------------------------------|
A|-|----------------------------------------t-------|----------------------------------|
E|-|------------------------------------------------|----------------------------------|


         B5  Bb5 A5   B5 Bb5 A5 P.M.......... B5 Bb5 A5 Bb5 A5
E|-|---------------------------|-----------------------|---------------------|
B|-|---------------------------|-----------------------|-------r----r---r----|
G|-|-----4---3---2-----4--3--2-|---------------4--3--2-|-3--2--e|--2-e-2-e-2--|
D|-|-----4---3---2-----4--3--2-|---------------4--3--2-|-3--2--s--2-s-2-s-2--|
A|-|-----2---1---0-----2--1--0-|---------------2--1--0-|-1--0--t--0-t-0-t-0--|
E|-|-0--------------0----------|-0--0-0-0--0-0---------|---------------------|



E|-|---------------------------|-----------------------|---------------------|
B|-|-14^12---------------------|-----------------------|---------------------|
G|-|------14-12----------------|-------------9-12------|-----------~~~~~-----|
D|-|------------14-12----------|--------9-12------12-9-|-12-14-12-14----(14)\|
A|-|------------------14-13-12-|-10-11-----------------|---------------------|
E|-|---------------------------|-----------------------|---------------------|


     E5                    G5                    A5
E|-|---------------------|---------------------|------------------|
B|-|---------------------|---------------------|------------------|
G|-|---------------------|---------------------|-2----------------|
D|-|-2-------------------|-5-------------------|-2----------------|
A|-|-2-------------------|-5-------------------|-0----------------|
E|-|-0-------------------|-3-------------------|------------------|



E|-|-----------/---------|---------------------|------)-----------|
B|-|-------7-10-----10-8-|-7---7-8-7^8^7-------|-----/------------|
G|-|-----7---------------|---9-----------9-7-6-|-7--7--7--6--4--7-|
D|-|-7/9-----------------|---------------------|------------------|
A|-|---------------------|---------------------|------------------|
E|-|---------------------|---------------------|------------------|


    F#5                      E5                          G5
E|-|-----------------------|---------------------------|-------------------------|
B|-|-----------------------|---------------------------|-------------------------|
G|-|-----------------------|-2-------------------------|-------------------------|
D|-|-4---------------------|-2-------------------------|-5-----------------------|
A|-|-4---------------------|-0-------------------------|-5-----------------------|
E|-|-2---------------------|---------------------------|-3-----------------------|



E|-|---------------)~~~~~~-|------------/--------------|----15-----15^12-15^12~~-|
B|-|-6------------/--------|-------12-15-------15^12---|-12----------------------|
G|-|-----7---6---7---------|----12------------------14-|-------------------------|
D|-|-----------------------|/14------------------------|-------------------------|
A|-|-----------------------|---------------------------|-------------------------|
E|-|-----------------------|---------------------------|-------------------------|


     A5                                                                  F#5
E|-|-------------------------------------------|------------------------------||
B|-|-------R-----------------------------------|-R----------------------------||
G|-|-2--------------E--------------------------|-------E----------------------||
D|-|-2----------------------S------------------|-------------S------------4---||
A|-|-0--------------------------------T--------|-------------------T------4---||
E|-|-------------------------------------------|--------------------------2---||



E|-|-20^15-20^15----------------14-14----------|------------------------------||
B|-|----------------------10/12-------12\10----|-10---------------------------||
G|-|-------------17^16^14-------------------12-|----12-11^12-11^12^11^9-9\----||
D|-|-------------------------------------------|------------------------------||
A|-|-------------------------------------------|------------------------------||
E|-|-------------------------------------------|------------------------------||


     F5  Bb5  B5  Bb5  B5  Bb5 B5  F#5    F5                        F5    B/D#
E|-|------------------|----------------||------------------|------------------||
B|-|*---r---r---r---r-|---r---r---r---*||-----R------------|-R----------------||
G|-|----e-3-e-4-e-3-e-|-4-e-3-e-4-e----||--------E---------|---E--------------||
D|-|--3-s-3-s-4-s-3-s-|-4-s-3-s-4-s-4--||-3---------S------|-----S---3--3--4--||
A|-|*-3-t-1-t-2-t-1-t-|-2-t-1-t-2-t-4-*||-3------------T---|-------T-3--3--6--||
E|-|--1---------------|-------------2--||-1----------------|---------1--1-----||

                                Bb5    A5                               Em    B/D#
   P.M........................             P.M.......................

E|-|--------------------------------------|------------------------------------|
B|-|--------------------------------------|------------------------------------|
G|-|--------------------------------------|------------------------------------|
D|-|-----------------------------8--8--7--|-----------------------------5--5--4|
A|-|-----------------------------8--8--7--|-----------------------------7--7--6|
E|-|--0-----0--0--0-----0--0--0--6--6--5--|--0-----0--0--0-----0--0--0---------|

    Cir - cle    of    de - struc - tion    hammer    comes          crushing
    Em                        Bb5    A5      F#5    G5         Ab5
         P.M..................            P.M       P.M.

E|-|--------------------------------------|------------------------------------|
B|-|--------------------------------------|------------------------------------|
G|-|--------------------------------------|------------------------------------|
D|-|--5--------------------------8--8--7--|----4----5-----5-----6--------------|
A|-|--7--------------------------8--8--7--|----4----5-----5-----6--------------|
E|-|--------0--0--0-----0--0--0--6--6--5--|-0--2----3--0--3-----4--------------|

    pow -   er -   house of  en  -  er    - gy
                             Bb5    A5                                Em    B/D#
   P.M........................             P.M.......................

E|-|--------------------------------------|------------------------------------|
B|-|--------------------------------------|------------------------------------|
G|-|--------------------------------------|------------------------------------|
D|-|-----------------------------8--8--7--|-----------------------------5--5--4|
A|-|-----------------------------8--8--7--|-----------------------------7--7--6|
E|-|--0-----0--0--0-----0--0--0--6--6--5--|--0-----0--0--0-----0--0--0---------|

     Whipping     up  a          fu - ry    dom  -    nat    - ing     flurry       weaker
    Em                        Bb5    A5      F#5    G5         Ab5
         P.M..................            P.M       P.M.

E|-|--------------------------------------|------------------------------------|
B|-|--------------------------------------|------------------------------------|
G|-|--------------------------------------|------------------------------------|
D|-|--5--------------------------8--8--7--|----4----5-----5-----6--------------|
A|-|--7--------------------------8--8--7--|----4----5-----5-----6--------------|
E|-|--------0--0--0-----0--0--0--6--6--5--|-0--2----3--0--3-----4--------------|

    we        create       the bat - ter - y !

Refrão:

     E5                       G5                    A5           F5     B/D#
E|-|------------------------|---------------------|------------------------------|
B|-|------------------------|---------------------|------------------------------|
G|-|------------------------|---------------------|--2---------------------------|
D|-|--2---------------------|--5------------------|--2------------3--3---4-------|
A|-|--2---------------------|--5------------------|--0------------3--3---6-------|
E|-|--0---------------------|--3------------------|---------------1--1-----------|

Smashing through the boundries,lunacy has found me cannot stop the battery
   P.M........................             P.M.......................

E|-|--------------------------------------|------------------------------------|
B|-|--------------------------------------|------------------------------------|
G|-|--------------------------------------|------------------------------------|
D|-|-----------------------------8--8--7--|-----------------------------5--5--4|
A|-|-----------------------------8--8--7--|-----------------------------7--7--6|
E|-|--0-----0--0--0-----0--0--0--6--6--5--|--0-----0--0--0-----0--0--0---------|

    Em                        Bb5    A5      F#5    G5         Ab5
         P.M..................            P.M       P.M.

E|-|--------------------------------------|------------------------------------|
B|-|--------------------------------------|------------------------------------|
G|-|--------------------------------------|------------------------------------|
D|-|--5--------------------------8--8--7--|----4----5-----5-----6--------------|
A|-|--7--------------------------8--8--7--|----4----5-----5-----6--------------|
E|-|--------0--0--0-----0--0--0--6--6--5--|-0--2----3--0--3-----4--------------|

                                                P.M..

     E5                       G5                    A5           F5     B/D#
E|-|------------------------|---------------------|------------------------------|
B|-|------------------------|---------------------|------------------------------|
G|-|------------------------|---------------------|--2---------------------------|
D|-|--2---------------------|--5------------------|--2------------3--3---4-------|
A|-|--2---------------------|--5------------------|--0------------3--3---6-------|
E|-|--0---------------------|--3------------------|---------------1--1-----------|

  Pounding out agression,    turned into obsession cannot  kill  the    battery
   P.M........................             P.M.......................

E|-|--------------------------------------|------------------------------------|
B|-|--------------------------------------|------------------------------------|
G|-|--------------------------------------|------------------------------------|
D|-|-----------------------------8--8--7--|-----------------------------5--5--4|
A|-|-----------------------------8--8--7--|-----------------------------7--7--6|
E|-|--0-----0--0--0-----0--0--0--6--6--5--|--0-----0--0--0-----0--0--0---------|

   P.M........................             P.M.......................

E|-|--------------------------------------|------------------------------------|
B|-|--------------------------------------|------------------------------------|
G|-|--------------------------------------|------------------------------------|
D|-|-----------------------------8--8--7--|-----------------------------5--5--4|
A|-|-----------------------------8--8--7--|-----------------------------7--7--6|
E|-|--0-----0--0--0-----0--0--0--6--6--5--|--0-----0--0--0-----0--0--0---------|

   Cannot   kill   the     family,          battery     has       grounded
   P.M........................             P.M.......................

E|-|--------------------------------------|------------------------------------|
B|-|--------------------------------------|------------------------------------|
G|-|--------------------------------------|------------------------------------|
D|-|-----------------------------8--8--7--|-----------------------------5--5--4|
A|-|-----------------------------8--8--7--|-----------------------------7--7--6|
E|-|--0-----0--0--0-----0--0--0--6--6--5--|--0-----0--0--0-----0--0--0---------|

     me !
 Em                            Bb5    A5
         P.M..................

E|-|--------------------------------------|
B|-|--------------------------------------|
G|-|--------------------------------------|
D|-|--5--------------------------8--8--7--|
A|-|--7--------------------------8--8--7--|
E|-|--------0--0--0-----0--0--0--6--6--5--|


                                Bb5  F5
E|-|--------------------------------------|
B|-|--------------------------------------|
G|-|--------------------------------------|
D|-|--5--------------------------8--8--3--|
A|-|--7--------------------------8--8--3--|
E|-|--------0--0--0-----0--0--0--6--6--1--|

                                Bat-ter -
   P.M........................             P.M.......................

E|-|--------------------------------------|------------------------------------|
B|-|--------------------------------------|------------------------------------|
G|-|--------------------------------------|------------------------------------|
D|-|-----------------------------8--8--7--|-----------------------------5--5--4|
A|-|-----------------------------8--8--7--|-----------------------------7--7--6|
E|-|--0-----0--0--0-----0--0--0--6--6--5--|--0-----0--0--0-----0--0--0---------|

    - y !
 Em                            Bb5    A5
          P.M..................

E|-|--------------------------------------||
B|-|--------------------------------------||
G|-|--------------------------------------||
D|-|--5--------------------------8--8--7--||
A|-|--7--------------------------8--8--7--||
E|-|--------0--0--0-----0--0--0--6--6--5--||


     Bb5 F5    P.M............. Bb5   A5  P.M............. Em    B/D#
E|-|---------||--------------------------|--------------------------|
B|-|---------||--------------------------|--------------------------|
G|-|-3-------||--------------------------|--------------------------|
D|-|-3---3---||------------------8--8--7-|------------------5--5--4-|
A|-|-1---3---||------------------8--8--7-|------------------7--7--6-|
E|-|-----1---||-0--0-0-0--0-0-0--6--6--5-|-0--0-0-0--0-0-0----------|

    Bat ter   y !

     Em P.M......... Bb5    A5  Bb5 F5   P.M.............  Bb5  A5
E|-|--------------------------||-------||---------------------------|
B|-|--------------------------||-------||---------------------------|
G|-|--------------------------||-3-----||---------------------------|
D|-|-5----------------8--8--7-||-3--3--||------------------8--8--7--|
A|-|-7----------------8--8--7-||-1--3--||------------------8--8--7--|
E|-|----0-0-0--0-0-0--6--6--5-||----1--||-0--0-0-0--0-0-0--6--6--5--|

                                Batter - y !

    P.M............. Em   B/D# Em P.M.........  Bb5    A5  Bb5 F5 E5
E|-|--------------------------|---------------------------|--------------|
B|-|--------------------------|---------------------------|----------r---|
G|-|--------------------------|---------------------------|-4--------e|---|
D|-|------------------5--5--4-|-5----------------8--8--7--|-4--3--2--s---|
A|-|------------------7--7--6-|-7----------------8--8--7--|-2--3--2--t---|
E|-|-0--0-0-0--0-0-0----------|----0-0-0--0-0-0--6--6--5--|----1--0------|

                                                           Battery !

Outro:

     F5  Bb5  B5  Bb5  B5  Bb5 B5   F#5   F5 Bb5 B5  Bb5    B5
E|-|------------------|-----------------|-----------------|---------|---------|
B|-|*---r---r---r---r-|---r---r---r---*-|---r---r---r---r-|---------|---------|
G|-|----e-3-e-4-e-3-e-|-4-e-3-e-4-e|-----|---s-3-e-4-e-3-e-|-4-------|-(4)-----|
D|-|--3-s-3-s-4-s-3-s-|-4-s-3-s-4-s-4---|-3-e-3-s-4-s-3-s-|-4-------|-(4)-----|
A|-|*-3-t-1-t-2-t-1-t-|-2-t-1-t-2-t-4-*-|-3-t-1-t-2-t-1-t-|-2-------|-(2)-----|
E|-|--1---------------|-------------2---|-1---------------|---------|---------|


    F#5 F5                   E5                   
E|-|------------------------|-----------------------||
B|-|-------r-----r-----r----|-------R---------------||
G|-|-------e-----e-----e----|----------E------------||
D|-|-4--3--s--3--s--3--s--3-|-2-----------S---------||
A|-|-4--3--t--3--t--3--t--3-|-2--------------T------||
E|-|-2--1-----1-----1-----1-|-0---------------------||

Comentarios 6

  • Henrique Henrique: Publicado en 06/05/2014 23:08

    paulinho da viola kkkkkkkkkkkkkkkkkkkkkkkkkkkkkkkkkkkkkk

  • Igor Igor: Publicado en 11/09/2013 23:35

    faz video aula awe

  • Igor Igor: Publicado en 10/09/2013 00:37

    Faz video aula , eu toco a pouco tempo e to doido pra toca essa musica :p

  • paulo.henrique paulo.henrique: Publicado en 20/05/2011 16:47

    Não só a Battery mas sim a maioria das músicas do Metallica na fase mais
    Thrash, não tem tanto segredo, é só rapidez... Boa cifra!

  • viniroquis viniroquis: Publicado en 10/05/2011 16:13

    vish mt foda

  • breno_riicardo breno_riicardo: Publicado en 23/01/2011 21:21

    Confesso que escutando Battery parece ser muito foda, mais nem é, o solo é até legal, mais pra mim é foda pq nao tô com pedaleira!

Composición: James Hetfield / Lars Ulrich / Lee Adams / Paulinho Da Viola
Ese no és el compositor? Avisenos.
Contribución: raphaellash
Exhibir acordes »
publicidad
cerrar