Ed Sheeran

I See Fire

17.780 reproducciones
Tono: C# (con acordes en la forma de G) Capo en 6ª casa
Oh, misty eye of the mountain below
Keep careful watch of my brothers' souls
And should the sky be filled with 
Fire and smoke
Keep watching over Durin's sons

(Em  C  D  Em) 2x

Primeira Parte:

              Em      G
If this is to end in fire
               D           C
Then we should all burn together
            Em          G   D         Am7
Watch the flames climb high into the night
        Em      G         D           C
Calling out father, oh, stand by and we will
            Am7       G/B
Watch the flames burn auburn on
     C
The mountain side

(Em  C  D  Em)

                  Em    G
And if we should die tonight
          D       C
We should all die   together
          Em      G   D          Am7
Raise a glass of wine   for the last time
        Em      G
Calling out father
  D         C
Prepare as we will
            Am7       G/B
Watch the flames burn auburn on
     C
The mountain side
     Am7    G/B             C
Desolation comes upon the sky

Refrão:

           Em7  C9
Now I see fire
D4          Em7
Inside the mountain
           C9
I see fire
 D4           Em7
Burning the trees
               C9
And I see fire
 D4        Em7
Hollowing souls
           C9
I see fire
  D4           A7(4)
Blood in the breeze

And I hope that you'll remember me

(Em  C  D  Em) 2x
Segunda Parte:

               Em     G
Oh, should my people fall in
       D            C
Surely I'll do the same
             Em       G
Confined in mountain holes
             D            Am7
We got too close to the flame
        Em      G
Calling out father
 D             C
Hold fast and we will
            Am7       G/B
Watch the flames burn auburn on
         C
The mountain side
     Am7    G/B             C
Desolation comes upon the sky

Refrão:

           Em7  C9
Now I see fire
D4          Em7
Inside the mountain
           C9
I see fire
 D4           Em7
Burning the trees
               C9
And I see fire
 D4        Em7
Hollowing souls
           C9
I see fire
  D4           A7(4)
Blood in the breeze

And I hope that you'll remember me

Terceira Parte:

            Am7      Em
And if the night is burning
        G       D
I will cover my eyes
            Am7    Em
For if the dark returns then
     G            D
My brothers will die
             Am7          Em
And as the sky's falling down
              G              D
It crashed into this lonely town
                Am7
And with that shadow upon the ground
  G/B          C               D
I     hear my people screaming out

Refrão:

           Em7  C9
Now I see fire
D4          Em7
Inside the mountain
           C9
I see fire
 D4           Em7
Burning the trees
               C9
And I see fire
 D4        Em7
Hollowing souls
           C9
I see fire
  D4           Em7
Blood in the breeze

           Em7
Now I see fire
C9                         D4     Em7
Oh, you know I saw a city burning out

And I see fire
 C9                     D4  Em7
Feel the heat upon my skin

And I see fire
C9           D4  Em7
Uh, uh, uh..

And I see fire
     C9             D4       A7(4)
Burn auburn on the mountain side

(Em  C  D  Em)

Intro:
   

E|----x-------------------------------------|
B|----x-------------------------------------|
G|----x-------------------------------------|
D|-2--x-------------------------------------|
A|-2--x-------------------------------------|
E|-0--x-------------------------------------|

   

   Em             C        D       Em
E|-------------------------------x-----0----|
B|-5--------------------1--3---3-x-0---0----|
G|-2h4p2-0-----0--------0--0h2-2-x-0---0----|
D|-2-------0h2----0h2---2--0-----x-2---2----|
A|-----------x----3---3-3--------x-----2----|
E|-0---------x-------------------x-0-0-0-0--|

                        ↓              ↓                        
                        x              x

Primeira Estrofe

Parte 1


   Em  G        D      C
E|---x-----x--------x--------x--------------|
B|-0-x-0---x----3---x--1-----x--------------|
G|-0-x-0---x----0h2-x--0-----x--------------|
D|-2-x-0---x----0---x--0h2---x--------------|
A|---x-----x--------x--3---3-x-0------------|
E|-0-x-3-3-x-0------x--------x--------------|


Parte 2


   Em  G        D      Am7
E|---x-----x--------x------x---------------|
B|-0-x-0---x----3---x--1---x---------------|
G|-0-x-0---x----0h2-x--0---x---------------|
D|-2-x-0---x----0---x--2---x---------------|
A|---x-----x--------x--0-0-x-0-------------|
E|-0-x-3-3-x-0------x------x---------------|


Parte 3


   Em  G        D      C
E|---x-----x--------x--------x--------------|
B|-0-x-0---x----3---x--1-----x--------------|
G|-0-x-0---x----0h2-x--0-----x--------------|
D|-2-x-0---x----0---x--0h2---x--------------|
A|---x-----x--------x--3---3-x-0------------|
E|-0-x-3-3-x-0------x--------x--------------|


Parte 4


  Am7  G/B      C
E|---x-----x--------x----------------------|
B|-1-x-3---x----1---x--1-------------------|
G|-0-x-0---x----0---x--0-------------------|
D|-2-x-0---x----0h2-x--2-------------------|
A|-0-x-2-2-x-0--3---x--3-------------------|
E|---x-----x--------x----------------------|


Segunda Estrofe:

Parte 1


   Em  G        D      C
E|---x-----x--------x--------x--------------|
B|-0-x-0---x----3---x--1-----x--------------|
G|-0-x-0---x----0h2-x--0-----x--------------|
D|-2-x-0---x----0---x--0h2---x--------------|
A|---x-----x--------x--3---3-x-0------------|
E|-0-x-3-3-x-0------x--------x--------------|


Parte 2


   Em  G        D      Am7
E|---x-----x--------x------x---------------|
B|-0-x-0---x----3---x--1---x---------------|
G|-0-x-0---x----0h2-x--0---x---------------|
D|-2-x-0---x----0---x--2---x---------------|
A|---x-----x--------x--0-0-x-0-------------|
E|-0-x-3-3-x-0------x------x---------------|


Parte 3


   Em  G        D      C
E|---x-----x--------x--------x-------------|
B|-0-x-0---x----3---x--1-----x-------------|
G|-0-x-0---x----0h2-x--0-----x-------------|
D|-2-x-0---x----0---x--0h2---x-------------|
A|---x-----x--------x--3---3-x-0-----------|
E|-0-x-3-3-x-0------x--------x-------------|


Parte 4


  Am7  G/B      C
E|---x-----x--------x------x---------------|
B|-1-x-3---x----1---x--1---x---------------|
G|-0-x-0---x----0---x--0---x---------------|
D|-2-x-0---x----0h2-x--2---x---------------|
A|-0-x-2-2-x-0--3---x--3-3-x-0-------------|
E|---x-----x--------x------x---------------|


Parte 5


  Am7  G/B      C
E|---x-----x--------x-----x----------------|
B|-1-x-3---x----1---x--1--x----------------|
G|-0-x-0---x----0---x--0--x----------------|
D|-2-x-0---x----0h2-x--2--x----------------|
A|-0-x-2-2-x-0--3---x--3--x----------------|
E|---x-----x--------x-----x----------------|


Final:


   Em             C    D      Em
E|-------------------------x---------------|
B|-5-------------------3---x--0------------|
G|-2h4p2-0-----0-------0h2-x--0------------|
D|-2-------0h2----0h2--0---x--2------------|
A|----------------3--------x---------------|
E|-0-----------------------x--0------------|
    Composición: Ed SheeranColaboración y revision:
    • Leo Eymard
    • Alicia
    • arnaldomoreira
    • Ana Carolina
    • +4
    301 Moved Permanently

    301 Moved Permanently


    nginx

    ¿conseguiste tocar?

    • felipe.feitosa.14
    • Davi
    • Ricardo
    • Daniel
    • Henrique
    • Otavio Augusto
    • Paula
    • •••

    covers

    ¡Grave un vídeo tocando I See Fire y envie para nosotros!

    Ex.: http://www.youtube.com/watch?v=0IvSvIwGdwk
    ver cover de otras canciones »
    0:00 / 0:00

    Capitulos

      1 versão de Guitar Proformatodownloadscontribuición
      play/pausefechar subir/bajar velocidad
      6ª cuerda E5ª cuerda A4ª cuerda D3ª cuerda G2ª cuerda B1ª cuerda E
        acordes
        versão revisada Leo Eymard instrutor de guitarra
        publicidad
        cerrar
        ok