Give Me Love

Ed Sheeran

 Ed Sheeran
Tono: C#(acordes na forma do tom C)
Cejilla en la 1ª casa		

E|--------------------------------------------------------------------------|
B|--------------------------------------------------------------------------|
G|--------------------------------------------------------------------------|
D|--------------------------------------------------------------------------|
A|--4-----------------------------------------------------------------------|
E|-----4-5-6----------------------------------------------------------------|


(intro)
Am  F C (4x)

Am          F        C
Give me love, like her
Am             F                      C
'Cause lately I've been waking up alone
Am                  F                    C
The paint splattered tear drops on my shirt
Am               F       C
I told you I'd let them go

               Dm
And that I'll fight my corner
         F
Maybe tonight Ill call ya
	   C		      G
After my blood, turns into alcohol
    Dm	              F
No, I just wanna hold ya

C           Dm        F
Give a little time to me
We'll burn this out
C           Dm        F
We'll play hide and seek
To turn this around
C         Dm          F
And all I want is the taste
That your lips allow

Am    F    C
My my my my give me love


E|--------------------------------------------------------------------------|
B|--------------------------------------------------------------------------|
G|--------------------------------------------------------------------------|
D|--------------------------------------------------------------------------|
A|--0-0-0-------3-3-3-3-3-3-------------------------------------------------|
E|--------1-1-1-------------------------------------------------------------|


Am    F    C
My my my my give me love
Am    F    C
My my my my give me love
Am    F    C
My my my my give me love
Am    F    C
My my my my give me love

Am           F            C
Give me love like never before
Am                F            C
'Cause lately I've been craving more
Am                    F                     C
And it’s been a while but I still feel the same
Am             F       C
Maybe I should let you go

              Dm
And that I'll fight my corner
        F
Maybe tonight Ill call ya
	   C		           G
After my blood, is drowning in alcohol
      Dm             F
No, I just wanna hold ya

C           Dm        F
Give a little time to me
We'll burn this out
C           Dm        F
We'll play hide and seek
To turn this around
C         Dm          F
And all I want is the taste
That your lips allow

Am    F    C
My my my my give me love

C           Dm        F
Give a little time to me
We'll burn this out
C           Dm        F
We'll play hide and seek
To turn this around
C         Dm          F
And all I want is the taste
That your lips allow

Am    F    C
My my my my give me love


E|--------------------------------------------------------------------------|
B|--------------------------------------------------------------------------|
G|--------------------------------------------------------------------------|
D|--------------------------------------------------------------------------|
A|--0-0-0-------3-3-3-3-3-3-------------------------------------------------|
E|--------1-1-1-------------------------------------------------------------|


Am    F    C
My my my my give me love
Am    F    C
My my my my give me love
Am    F    C
My my my my give me love
Am    F    C
My my my my give me love
Texto Columnas
Alterar tom ½ tono ½ tono
sintonización acordes esconder tabs más »
31.402 exhibiciónes

Comentarios (27)

  • kathlyn kathlyn: Publicado en 20/04/2014 - 18:21

    essa nao é a original

  • daaypaiva daaypaiva: Publicado en 16/04/2014 - 12:16

    que ritmo fica legal pra tocar? Responde, pleaaaaaaaaaase.

    • Yasmin Yasmin: Publicado en 19/04/2014 - 13:16

      bbcbbcbbc fica legal,ou inteira dedilhada

  • diogo diogo: Publicado en 15/04/2014 - 12:36

    alguem sabe o ritmo?????? adoro cantar e nao sei o ritmo paa a guitarra e parece k fica esquisito me ajudem?????

  • Esterângela Esterângela: Publicado en 13/02/2014 09:18

    amo essa musica !

  • Esterângela Esterângela: Publicado en 13/02/2014 09:07

    Alguem sabe o ritmo ?

  • Anderson Anderson : Publicado en 29/01/2014 11:39

    Eu escuto essa musica eu Lembro de The Vampires Diaries . *o*

    • Ana Laura Ana Laura: Publicado en 12/03/2014 19:44

      Comentário removido

  • Ana Paula Ana Paula: Publicado en 21/01/2014 22:15

    video aula por favor

  • ygoro ygoro: Publicado en 02/11/2013 13:53

    tom em C sem o capo

Exhibiendo 10 de 27 comentarios Mostrar más ver todo »
Composición: Broken Silence / Cameron / Todd Evans
Ese no és el compositor? Avisenos.
Contribución: arielsliphero Correcciónes: jony98 , garbat e mais 14 »
  1. Sweet Child O' Mine - Guns N' Roses mantiene 2.750 exhibiciones
  2. Wonderwall - Oasis mantiene 2.197 exhibiciones
  3. Hey Jude - The Beatles mantiene 1.966 exhibiciones
  4. Nothing Else Matters - Metallica mantiene 1.737 exhibiciones
  5. Stairway To Heaven - Led Zeppelin mantiene 1.643 exhibiciones
  6. Wake Me Up - Avicii mantiene 1.572 exhibiciones
  7. When I Was Your Man - Bruno Mars mantiene 1.487 exhibiciones
  8. More Than Words - Extreme mantiene 1.363 exhibiciones
  9. Get Lucky - Daft Punk mantiene 1.334 exhibiciones
  10. Don't Let Me Down - The Beatles mantiene 1.248 exhibiciones
  1. The Beatles- mantiene 23.988 exhibiciones
  2. Metallica- mantiene 8.050 exhibiciones
  3. Guns N' Roses- mantiene 7.403 exhibiciones
  4. Nirvana- mantiene 6.196 exhibiciones
  5. Red Hot Chili Peppers- mantiene 5.550 exhibiciones
  6. One Direction- mantiene 5.389 exhibiciones
  7. Coldplay- mantiene 4.749 exhibiciones
  8. Bruno Mars- mantiene 4.574 exhibiciones
  9. Oasis- mantiene 4.374 exhibiciones
  10. Green Day- mantiene 3.363 exhibiciones
Exhibir acordes »

Acordes y tabs

Aprenda

Studio Sol

©1996 - 2014 Cifra Club · el primero, mayor y más accedido del Brasil · 329 mil músicas · 6.0 millones de personas registradas

publicidad
cerrar