Give Me Love

Ed Sheeran

 Ed Sheeran
Tono: C#(acordes na forma do tom C)
Cejilla en la 1ª casa		

E|--------------------------------------------------------------------------|
B|--------------------------------------------------------------------------|
G|--------------------------------------------------------------------------|
D|--------------------------------------------------------------------------|
A|--3-----------------------------------------------------------------------|
E|-----3-4-5----------------------------------------------------------------|


(intro)
Am  F C (4x)

Am          F        C
Give me love, like her
Am             F                      C
'Cause lately I've been waking up alone
Am                  F                    C
The paint splattered tear drops on my shirt
Am               F       C
I told you I'd let them go

               Dm
And that I'll fight my corner
         F
Maybe tonight Ill call ya
	   C		      G
After my blood, turns into alcohol
    Dm	              F
No, I just wanna hold ya

C           Dm        F
Give a little time to me
We'll burn this out
C           Dm        F
We'll play hide and seek
To turn this around
C         Dm          F
And all I want is the taste
That your lips allow

Am    F    C
My my my my give me love


E|--------------------------------------------------------------------------|
B|--------------------------------------------------------------------------|
G|--------------------------------------------------------------------------|
D|--------------------------------------------------------------------------|
A|--0-0-0-------3-3-3-3-3-3-------------------------------------------------|
E|--------1-1-1-------------------------------------------------------------|


Am    F    C
My my my my give me love
Am    F    C
My my my my give me love
Am    F    C
My my my my give me love
Am    F    C
My my my my give me love

Am           F            C
Give me love like never before
Am                F            C
'Cause lately I've been craving more
Am                    F                     C
And it’s been a while but I still feel the same
Am             F       C
Maybe I should let you go

              Dm
And that I'll fight my corner
        F
Maybe tonight Ill call ya
	   C		           G
After my blood, is drowning in alcohol
      Dm             F
No, I just wanna hold ya

C           Dm        F
Give a little time to me
We'll burn this out
C           Dm        F
We'll play hide and seek
To turn this around
C         Dm          F
And all I want is the taste
That your lips allow

Am    F    C
My my my my give me love

C           Dm        F
Give a little time to me
We'll burn this out
C           Dm        F
We'll play hide and seek
To turn this around
C         Dm          F
And all I want is the taste
That your lips allow

Am    F    C
My my my my give me love

     Am          G

E|--------------------------------------------------------------------------|
B|--------------------------------------------------------------------------|
G|--------------------------------------------------------------------------|
D|--------------------------------------------------------------------------|
A|--0-0-0-------3-3-3-3-3-3-------------------------------------------------|
E|--------1-1-1-------------------------------------------------------------|


Am    F    C
My my my my give me love
Am    F    C
My my my my give me love
Am    F    C
My my my my give me love
Am    F    C
My my my my give me love
Texto Columnas
Alterar tom ½ tono ½ tono
sintonización acordes esconder tabs más »
42.325 exhibiciónes

Comentarios 37

  • Gustavo Gustavo: Publicado en 01/08/2014 10:53

    Maneira

  • Amanda Amanda: Publicado en 24/06/2014 17:46

    A tab está errada, eu corrigi e espero q vcs gostem ;)

  • claraagatinha claraagatinha: Publicado en 14/06/2014 22:00

    bota video aula ai cifra club por favor vey

  • Willi Willi: Publicado en 08/06/2014 13:59

    videoo aula CIFRA CLUB !!! por favor .. :D musica muito boa

  • Juan Juan: Publicado en 02/06/2014 20:52

    Pessoal. Essa musica no original , tem Capo na Primeira Casa. Abrçs

  • Iolanda Iolanda: Publicado en 15/05/2014 20:46

    Faz video aula dessa musica

  • luan luan: Publicado en 03/05/2014 21:38

    Batida:↓ ↓ ↑ ↓ ↑

  • Felipe Felipe: Publicado en 28/04/2014 19:22

    Faz video aula dessa musica pleasiiiiiiiiiiii ! ;))

  • kathlyn kathlyn: Publicado en 20/04/2014 18:22

    essa nao é a original

    • Boddah Boddah: Publicado en 20/06/2014 19:42

      só colocar capo na primeira casa q o som fica igual :x

Exhibiendo 10 de 37 comentarios Mostrar más ver todo »
Composición: Broken Silence / Cameron / Todd Evans
Ese no és el compositor? Avisenos.
Contribución: arielsliphero Correcciónes: Amanda , jony98 e mais 17 »
  1. Sweet Child O' Mine - Guns N' Roses mantiene 2.715 exhibiciones
  2. Wonderwall - Oasis mantiene 1.966 exhibiciones
  3. All Of Me - John Legend mantiene 1.764 exhibiciones
  4. Nothing Else Matters - Metallica mantiene 1.550 exhibiciones
  5. When I Was Your Man - Bruno Mars mantiene 1.523 exhibiciones
  6. Stairway To Heaven - Led Zeppelin mantiene 1.429 exhibiciones
  7. Hey Jude - The Beatles mantiene 1.347 exhibiciones
  8. More Than Words - Extreme mantiene 1.344 exhibiciones
  9. The Scientist - Coldplay mantiene 1.262 exhibiciones
  10. Wake Me Up - Avicii mantiene 1.117 exhibiciones
  1. The Beatles- mantiene 21.189 exhibiciones
  2. Guns N' Roses- mantiene 7.264 exhibiciones
  3. Metallica- mantiene 6.789 exhibiciones
  4. Red Hot Chili Peppers- mantiene 5.366 exhibiciones
  5. Nirvana- mantiene 5.161 exhibiciones
  6. Coldplay- mantiene 5.010 exhibiciones
  7. One Direction- mantiene 4.646 exhibiciones
  8. Bruno Mars- mantiene 4.499 exhibiciones
  9. Oasis- mantiene 4.345 exhibiciones
  10. Green Day- mantiene 3.613 exhibiciones
Exhibir acordes »

Acordes y tabs

Aprenda

Studio Sol

©1996 - 2014 Cifra Club · el primero, mayor y más accedido del Brasil · 336 mil músicas · 6.2 millones de personas registradas

publicidad
cerrar