My Heart Will Go On

Céline Dion

 Céline Dion
Tono: E
		
Intro 2x: C#m B A B


E|-----0-2-4-----4-2-0-2-7-5-4-0-----------|
B|--------------------------------2-0------|
G|-----------------------------------------|
D|-----------------------------------------|
A|-----------------------------------------|
E|-----------------------------------------|



E|-----0-2-4----4-2-0-2-7-4-7-9-7-4-2------|
B|-----------------------------------------|
G|-----------------------------------------|
D|-----------------------------------------|
A|-----------------------------------------|
E|-----------------------------------------|


E              B
Every night in my dreams
  A         C#m    B
I see you I feel you
E             B           A
that is how I know you go on.

E              B
Far across the distance
    A      C#m     B
and spaces between us
E                B           A
you have come to show you go on.

E/D    B      A         B
Near, far, wherever you are
  C#m             B             A  B
I believe that the heart does go on.
C#m   B        A        B
Once more, you open the door
           C#m        B
and you're here in my heart and
   A             B      E
my heart will go on and on.

                 B
Love can touch us one time
    A        C#m   B
and last for life time
E         B                 A
and never let go till we're gone.
E               B              A         C#m      B
Love was when I loved you, one true time I hold to
E                B         A
In my life we'll always go on.

E/D      B      A         B
Near, far, wherever you are
  C#m             B             A  B
I believe that the heart does go on.
C#m   B        A        B
Once more, you open the door
           C#m        B
and you're here in my heart and
   A             B      E
my heart will go on and on.


(ponte) C#m  B  A  B  C#m  B  A  Bsus4

Fm      Eb           Db        Eb
You're hear there's nothing I fear
      Fm            Eb            Db  Eb
and I know that my heart will go on.
Fm     Eb      Db        Eb
We'll stay forever this way
        Fm          Eb
You are safe in my heart
       Db            Eb     Fm  Eb    Db    Fm    Eb    Db    Fm
and my heart will go on and on.

Outro: Eb  Db  Ab  Eb  Db  Ab

Comentarios 18

  • Guilherme Guilherme: Publicado en 12/12/2013 14:01

    Comentário removido

    • Guilherme Guilherme: Publicado en 12/12/2013 14:02

      2ª Parte

      E|-0-2-4---4-2-0-2-7--4--7-7\9-7--4--2-|
      B|-----------------------------------------------|

    • Guilherme Guilherme: Publicado en 12/12/2013 14:04

      Comentário removido

    • Guilherme Guilherme: Publicado en 12/12/2013 14:06

      3ª Parte
      E|-9--11--12--11--7---4-7--7\9--7--4--2------|
      B|-----------------------------------------------------|

  • EsterSullivan EsterSullivan: Publicado en 21/11/2013 13:07

    Muito fácil..

  • Quel Quel : Publicado en 28/07/2013 14:00

    Só falta a aula !!! *-*

  • Juliana Juliana: Publicado en 14/07/2013 17:01

    video aula pf cifra club

  • caique19 caique19: Publicado en 06/07/2013 13:46

    ta faltando a aula gelera

  • dracula666 dracula666: Publicado en 10/01/2013 10:11

    coloca um video aula ai cifra club

  • xdoritosx xdoritosx: Publicado en 03/01/2013 02:04

    Eu achei E/C# melhor que esse E/D...

Exhibiendo 10 de 18 comentarios Mostrar más ver todo »
Composición: Glauco Ferreira / Kathy Foster / Leslie Bricusse / Sergio Caetano / Will Jennings
Ese no és el compositor? Avisenos.
Contribución: Carlos Correcciónes: haecio , roberto_guh e mais 6 »
Exhibir acordes »
publicidad
cerrar