Always Solo

Bon Jovi

 Bon Jovi
Tono: D
		
Tabbed by Ross O'Keefe 


E|----------------------------------------|------------------------------------------------|
B|----------------------------------------|------------------------------------------------|
G|----------------------------------------|------------------------------------------------|
D|--------9h11------9h11------------------|------------------------------------------------|
A|-9 / 11------9h11------9h11--9b10\\7h9--|------7-9-9br7--------7-9-9br--------7-9-9bp7---|
E|--------------------------------------7-|--7-9----------9--7-9---------9--7-9----------9-|


E|------------------------------------------------------------------9--|
B|-------------12b-12--9-9-------12-12--9-9----------------------------|
G|------------------------11-11-------------11-11--9-11br9-9-11vv------|
D|------6--------------------------------------------------------------|
A|--7h9--9-------------------------------------------------------------|
E|---------------------------------------------------------------------|



E|---9-12-9-12------12p9---9-12-9-12----9-12/14-14b16r12h14---12-15b-14b--12 14------|
B|-------------12p9-----12-----------12----------------------------------------12h14-|
G|-----------------------------------------------------------------------------------|
D|-----------------------------------------------------------------------------------|
A|-----------------------------------------------------------------------------------|
E|-----------------------------------------------------------------------------------|



Thanks

Ross 
:: Ultimate Guitar Archive :: 
http://*

Comentarios 0

Exhibir acordes »
publicidad
cerrar