You Give Love A Bad Name

Bon Jovi

 Bon Jovi
Tono: A#
		
Intro:

E|-----------------------------------------------------------------------|
B|-----------------------------------------------------------------------|
G|--10b12--10~--10-8-10b12r10-8~----------10b12--10~---8----12r10p8------|
D|------------------------------10~--8-10~--------------------------10~~-|
A|-----------------------------------------------------------------------|
E|-----------------------------------------------------------------------|



E|-----------------------------------------------------------------------|
B|-----------------------------------------------------------------------|
G|--10b12--10~--8-10-10b12r10-8~----------10b12--10~---------------------|
D|------------------------------10~--8-10~-------------------------------|
A|-----------------------------------------------------------------------|
E|-----------------------------------------------------------------------|


Riff:
  P.M...............................       H.A   P.M.................   AL

E|-----------------------------------------------------------------------|
B|-----------------------------------------------------------------------|
G|----------------------------------------------------------------------7|
D|--------------1--1------------------1--1-------------------1-1--------7|
A|-3-----1--3----------3-1--3----1--3-------3~----3----1--3------3--1----|
E|----3------------------------3--------------------3--------------------|


Verso:
    P.M...............................       H.A

E|----------------------------------------------|
B|----------------------------------------------|
G|----------------------------------------------|
D|--------------1--1--------------------1--1----|   (4x)
A|--3-----1--3--------3--1--3-----1--3--------3-|
E|-----3-----------------------3----------------|


(Verso)
An angel's smile is what you sell
You promise me heaven then put me through hell
Chains of love got a hold on me
When passions a prison you can't break free
Pré-Refrão:
      AL          P.M.       P.M.

E|----------------------------------------------|
B|----------------------------------------------|
G|----7--------7~------3-2~-------5-4~----------|
D|----7---6-8--------3----------5---------------|
A|X-3---8---------------------------------------|
E|X-1---6----------1---------3------------------|


(Pre-refrão)
Oh, You're a loaded gun
Oh, There's noway to run
No one can save me
The damage is done
Refrão:

E|----------------------------------------------|
B|----------------------------------------------|
G|----------------------------------------------| (2x)
D|--5---------------------1--1------------------|
A|--3-----6---8--10----6-8-----3~---------------|
E|--------4---6---8----4-6----------------------|



E|----------------------------------------------|
B|----------------------------------------------|
G|----------------------------------------------|
D|----------------------------------------------|
A|--6-8-----------------------------------------|
E|--4-6-----------------------------------------|


(Refrão)
Shot thru the heart
And you're to blame
You give love a bad name
I play my part and you play your game
You give love a bad name
You give love a bad name
Riff:
  P.M...............................       H.A   P.M.................   AL

E|-----------------------------------------------------------------------|
B|-----------------------------------------------------------------------|
G|----------------------------------------------------------------------7|
D|--------------1--1------------------1--1-------------------1-1--------7|
A|-3-----1--3----------3-1--3----1--3-------3~----3----1--3------3--1----|
E|----3------------------------3--------------------3--------------------|


(Verso)
You paint your smile on your lips
Blood red nails on your fingertips
A schoolboy's dream, you act so shy
Your very first kiss was your first kiss goodbye

(Pre-refrão)
Whoa!
You're a loaded gun
whoa...
There's nowhere to run
No one can save me
The damage is done

(Refrão)
Shot thru the heart
And you're to blame
You give love a bad name
I play my part and you play your game
You give love a bad name
You give love a bad name
Solo:
  H.A
   AL       AL     AL          AL         T

E|-----------------------------------------------------------------------|
B|----------------------------------------13--11p8h11p8h11p8-------------|
G|-12--8~-5\7-8--8\10--12---12\15\17--17---------------------------------|
D|-----------------------------------------------------------------------|
A|--------3\5-6--6\8---10---10\13\15--15---------------------------------|
E|-----------------------------------------------------------------------|

   T                     T                  T

E|-----------------------------------------------------------------------|
B|13--11p8h11p8h11p8----13-11p8h11p8h11p8--13-11p8h11p8h11p8\13--13~-----|
G|-----------------------------------------------------------------------|
D|-----------------------------------------------------------------------|
A|-----------------------------------------------------------------------|
E|-----------------------------------------------------------------------|

                                                       AL

E|8-----10---------------------------------------------------------------|
B|11b13-13b15------------------------------------------------------------|
G|-----------------------------------------------------------------------|
D|-------------------------1--------------------1------5~----------------|
A|------------3-------1--3---3--1--3-------1--3---3--1-------------------|
E|--------------1--3-----------------1--3--------------------------------|


(Refrão)
Shot thru the heart                  
And you're to blame                  
You give love a bad name             
I play my part and you play your game
You give love a bad name             
You give love a bad name             
Final:

E|-----------------------------------------------------------------------|
B|-----------------------------------------------------------------------|
G|-----------------------------------------------------------------------|
D|-------1-1----------1-1----------1-1-----------------------------------|
A|---6-8-----3~----6-8----3~---6-8-----3~--------------------------------|
E|---4-6-----------4-6---------4-6---------------------------------------|


(Final)
oh oh oh oh
oh oh oh oh Bad Name
oh oh oh oh
oh oh oh oh Bad Name
Texto Columnas
Alterar tom ½ tono ½ tono
sintonización acordes esconder tabs más »

Comentarios 8

  • socrates38 socrates38: Publicado en 31/01/2014 16:10

    moleza, nao é uma musica com muitos riffs e muitos solos, é apenas um riff 1 solo inicial, um solo com tapping e um solo no verso. top

  • Renato Renato: Publicado en 26/12/2013 13:48

    Video Aula ai !

  • lukewilkshire.lukwill lukewilkshire.lukwill: Publicado en 17/12/2013 15:52

    meio fácil

  • ks_demons ks_demons: Publicado en 12/01/2013 19:55

    video aula dessa musica seria bom cifraclub

  • faiah faiah: Publicado en 03/01/2013 13:00

    video aula...

  • matheus.atallah matheus.atallah: Publicado en 12/02/2012 15:22

    VEJAM A VERSÂO 2, desta cifra. ( clicando la em cima ) é melhor.

    • doidao doidao: Publicado en 01/01/2013 10:36

      melhor??? não tem nem os solos.....

  • pgsodre pgsodre: Publicado en 20/06/2011 13:34

    façam aew uma video aula dessa musica

Composición: James Scheffer / Jon Bon Jovi / Nick Hodgson / Ricardo Brown / Richie Sambora / Sérgio Bittencourt / Sergio Sa
Ese no és el compositor? Avisenos.
Contribución: Nunes Correcciónes: victor90215 e mais 2 »
  1. Sweet Child O' Mine - Guns N' Roses mantiene 2.760 exhibiciones
  2. Wonderwall - Oasis mantiene 2.017 exhibiciones
  3. When I Was Your Man - Bruno Mars mantiene 1.626 exhibiciones
  4. Nothing Else Matters - Metallica mantiene 1.559 exhibiciones
  5. Stairway To Heaven - Led Zeppelin mantiene 1.531 exhibiciones
  6. All Of Me - John Legend mantiene 1.459 exhibiciones
  7. Hey Jude - The Beatles mantiene 1.430 exhibiciones
  8. More Than Words - Extreme mantiene 1.391 exhibiciones
  9. The Scientist - Coldplay mantiene 1.319 exhibiciones
  10. Wake Me Up - Avicii mantiene 1.129 exhibiciones
  1. The Beatles- mantiene 21.059 exhibiciones
  2. Guns N' Roses- mantiene 6.915 exhibiciones
  3. Metallica- mantiene 6.777 exhibiciones
  4. Coldplay- mantiene 5.157 exhibiciones
  5. One Direction- mantiene 4.927 exhibiciones
  6. Nirvana- mantiene 4.909 exhibiciones
  7. Red Hot Chili Peppers- mantiene 4.859 exhibiciones
  8. Bruno Mars- mantiene 4.718 exhibiciones
  9. Oasis- mantiene 4.423 exhibiciones
  10. Green Day- mantiene 3.522 exhibiciones
Exhibir acordes »

Acordes y tabs

Aprenda

Studio Sol

©1996 - 2014 Cifra Club · el primero, mayor y más accedido del Brasil · 335 mil músicas · 6.2 millones de personas registradas

publicidad
cerrar