Livin' On A Prayer

Bon Jovi

 Bon Jovi
Tono: F
		
Intro: Em  C5  D5


E|------------------------------------------------------------|
B|------------------------------------------------------------|
G|------------------------------------------------------------|
D|------------------------------------------------------------|
A|----7-----5-----------5-----7-----5-----------5-----7-----5-|
E|-0-----0-----0--0--7-----0-----0-----0--0--7-----0-----0----|


(Once upon a time, not so long ago)

Em
Tommy used to work on the docks
Em
Union's been on strike. He's down on his luck
      C5      D5      Em
It's though,    so though.

Em
Gina work the dinner all day
Em
Working for her man. She brings home here pay
     C5    D5       Em
For love,    for love.

                       C5   D5                Em
She says we've got to hold on to what we've got.
   C5            D5                            Em
It doesn't make a difference if we make it or not.
       C5       D5                  Em   D5    C5
We've got each other and that's a lot, for love.
      D5
We'll give it a shot.

Em  C5         D5             G5 C5   D5
Woooo, we're halfway there, wooo, livin' on a prayer.
Em       C5         D5
Take my hand we'll make it, I swear
G5  C5  D5
Wooo, livin' on a prayer

Em
Tommy got his six string in hock,
Em
now he's holding in, what he used to make it talk
    C5      D5           Em
So though,    it's so though.

Em
Gina dreams of running away
Em
When she cries in the night, Tommy whispers:
          C5    D5     Em
Baby it's O.K.,  some day.

             C5   D5                Em
we've got to hold on to what we've got.
   C5           D5                             Em
It doesn't make a difference if we make it or not.
       C5       D5                  Em   D5   C5
We've got each other and that's a lot, for love.
      D5
We'll give it a shot.

Em  C5        D5              G5  C5  D5
Woooo, we're halfway there, wooo, livin' on a prayer.
Em       C5          D5
Take my hand we'll make it, I swear
G5  C5  D5
Wooo, livin' on a prayer
C5
Livin' on a prayer.

Solo: Em  C  D  G  C  D

Em                        C5   D5             Em D5
Oooooooooh, we've got to hold on, ready or not
      C5                           D5
You live for the fight when it's all that you've got.

Refrão final mudança de Gm  Eb       F              Bb Eb  F
Woooo, we're halfway there, wooo, livin' on a prayer.
Gm       Eb        F
Take my hand we'll make it, I swear
Bb Eb  F
Wooo, livin' on a prayer

Versão 2

Intro 12x:


E|-----------------|
B|-----------------|
G|-----------------|
D|-----------------|
A|---7---5-------5-|
E|-0---7---0-0-7---|


Verso 2x:

       Em                      E9
E|---------------------------------|
B|-8-8-8-8-8-8-8-8-8-8-8-8-7-7-7-7-|
G|-9-9-9-9-9-9-9-9-9-9-9-9-9-9-9-9-|  (2x)
D|-9-9-9-9-9-9-9-9-9-9-9-9-9-9-9-9-|
A|-7-7-7-7-7-7-7-7-7-7-7-7-7-7-7-7-|
E|---------------------------------|


       C               D
E|---------------------------------|
B|---------------------------------|
G|-5~--------------7~--------------|
D|-5~--------------7~--------------|
A|-3~--------------5~--------------|
E|---------------------------------| (com talkbox)


       Em
E|-----------------|
B|-----------------|
G|-----------------|  (2x)
D|-----------------|
A|---7---5-------5-|
E|-0---7---0-0-7---|


Pré Refrão:

       C     D          D   D   Em       C     D          D   D   Em
E|-----------------|----------------|----------------|----------------|
B|-----------------|----------------|----------------|----------------|
G|-5-----7---------|7---7---9-------|5-----7---------|7---7---9-------|
D|-5-----7---------|7---7---9-------|5-----7---------|7---7---9-------|
A|-3-----5-------0-|5---5---7-------|3-----5-------0-|5---5---7-------|
E|-----------------|----------------|----------------|----------------|


       C     D          D   D   Em  D    C                D  D  D  D
E|-----------------|----------------|----------------|----------------|
B|-----------------|----------------|----------------|----------------|
G|-5-----7---------|7---7---9---7---|5~--------------|7--7--7--7------|
D|-5-----7---------|7---7---9---7---|5~--------------|7--7--7--7------|
A|-3-----5-------0-|5---5---7---5---|3~--------------|5--5--5--5------|
E|-----------------|----------------|----------------|------------12-|


Refrão:

       Em    C          D                G     C          D
E|-----------------|----------------|----------------|----------------|
B|-----------------|----------------|----------------|----------------|
G|-------5-------5-|7~--------------|------5-------5-|7~--------------|
D|-2-----5-------5-|7~--------------|5-----5-------5-|7~--------------|
A|-2-----3-------3-|5~--------------|5-----3-------3-|5~--------------|
E|-0---------------|------------0-2-|3---------------|----------------| x2


Intro 2x:

       Em
E|----------------|
B|----------------|
G|----------------|
D|----------------|
A|--7---5-------5-|
E|0---7---0-0-7---|(com talkbox)


Verso 2x:

       Em                     E9
E|---------------------------------|
B|---------------------------------|
G|---------------------------------|
D|---------------------------------|
A|---7---5-------5---7---5-------5-|
E|-0---7---0-0-7---0---7---0-0-7---| (com talkbox)


       C                 D         Em                          descer alavanca
E|----------------------------20b22~--22r20p19----------------|
B|----------------------------------------------20---------8~~|
G|-5~---14b16----16r14~~---------------------------21~~----9~~|
D|-5~---------------------------------------------------------|
A|-3~---------------------------------------------------------|
E|------------------------------------------------------------|  (com talkbox)


       Em
E|-----------------|
B|-----------------|
G|-----------------|
D|-----------------|
A|---7---5-------5-|
E|-0---7---0-0-7---|(com talkbox) (8x) ( Em  Em  C  D  Em  Em )


Pré Refrão:

       C     D          D   D   Em       C     D          D   D   Em
E|-----------------|----------------|----------------|----------------|
B|-----------------|----------------|----------------|----------------|
G|-5-----7---------|7---7---9-------|5-----7---------|7---7---9-------|
D|-5-----7---------|7---7---9-------|5-----7---------|7---7---9-------|
A|-3-----5-------0-|5---5---7-------|3-----5-------0-|5---5---7-------|
E|-----------------|----------------|----------------|----------------|


       C     D          D   D   Em  D    C                D  D  D  D
E|-----------------|----------------|----------------|----------------|
B|-----------------|----------------|----------------|----------------|
G|-5-----7---------|7---7---9---7---|5~--------------|7--7--7--7------|
D|-5-----7---------|7---7---9---7---|5~--------------|7--7--7--7------|
A|-3-----5-------0-|5---5---7---5---|3~--------------|5--5--5--5------|
E|-----------------|----------------|----------------|-------------12-|


Refrão:

       Em    C          D                G     C          D
E|-----------------|----------------|----------------|----------------|
B|-----------------|----------------|----------------|----------------|
G|-------5-------5-|7~--------------|------5-------5-|7~--------------|  (2x)
D|-2-----5-------5-|7~--------------|5-----5-------5-|7~--------------|
A|-2-----3-------3-|5~--------------|5-----3-------3-|5~--------------|
E|-0---------------|------------0-2-|3---------------|----------------|


       C9
E|-3---------------|----------------|
B|-3---------------|----------------|
G|-5-----7----5~~~~|~~~~~~~~~~~~~~~~|
D|-5-----7----5~~~~|~~~~~~~~~~~~~~~~|
A|-3-----5----3----|----------------|
E|-----------------|----------------|


Solo:
       Em     C           D
E|-------------------|-------------12-14-|
B|-------------------|-------------x-----|
G|-------------------|-------------------|
D|----------5-7-7b9v-|7------------------|
A|-7-5-7 7~----------|--5-5~~------------|
E|-------------------|-------------------|

        G        C              D
E|15-------------------------|-------------------------|
B|---15-12-13-15-15b17-15b17-|--15~--------------------|
G|---------------------------|-------------------------|
D|---------------------------|-------------------------|
A|---------------------------|-------------------------|
E|---------------------------|-------------------------|


        Em      C	 P.H.-----|                    G        C
E|---------------------|--------------12---14-|15-------------------|
B|---12----------------|--------------(12)----|---15-12-13--12------|
G|---12-x-14--12-11b12r|11------------x-------|----------------12~--|
D|14----x-14--12-------|---12-----------------|---------------------|
A|---------------------|------12--------------|---------------------|
E|---------------------|----------------------|---------------------|


         Em
E|-------12~~-----------|---------12h14h15----------14h15h17h-17b19---|
b|15b17-----------------|12h13h15----------13h15h17-------------------|
G|----------------------|---------------------------------------------|
D|----------------------|---------------------------------------------|
A|----------------------|---------------------------------------------|
E|----------------------|---------------------------------------------|


Refrão:

       Gm    Eb         F                Bb    Eb         F
E|-----------------|----------------|----------------|----------------|
B|-----------------|----------------|----------------|----------------|
G|-------8-------8-|10--------------|------8-------8-|10--------------|
D|-5-----8-------8-|10--------------|8-----8-------8-|10--------------|
A|-5-----6-------6-|8---------------|8-----6-------6-|8---------------|
E|-3---------------|------------3-5-|6---------------|----------------|
Texto Columnas
Alterar tom ½ tono ½ tono
sintonización acordes esconder tabs más »

Comentarios (39)

  • notzoeiranotlife notzoeiranotlife: Publicado en 02/04/2014 12:03

    é livin on a PLAYER nao PRAYER

    • Ridien7 Ridien7: Publicado en 02/04/2014 17:34

      É Prayer mesmo, de oração
      "Vivendo sobre uma oração"

  • silmarah silmarah: Publicado en 10/02/2014 21:00

    cadê a vídeo aula como é q nos vamos saber o ririmo !!!!

  • rodrigo.botinelly rodrigo.botinelly: Publicado en 22/12/2013 14:47

    video aula !!!!

  • João João: Publicado en 23/11/2013 00:58

    Acho que muita gente veio aqui por causa do último episódio de "todo mundo odeia o Chris" uasuahsaush ( entendedores entenderão )

  • Raynier Raynier: Publicado en 07/11/2013 14:44

    aff precisamos de video-aula nessa música

  • @ninh@ @ninh@: Publicado en 19/10/2013 00:44

    muito boa a musica
    so falta o video aula

  • Luís Luís: Publicado en 27/09/2013 17:06

    Video aula !!!

  • Thayghethy Thayghethy: Publicado en 27/07/2013 15:23

    Queremos Vídeo Aula!!!

  • henrique henrique : Publicado en 01/06/2013 18:23

    video aula !

Exhibiendo 10 de 39 comentarios Mostrar más ver todo »
Composición: Jon Bon Jovi / Richie Sambora / Desmond Child
Ese no és el compositor? Avisenos.
Contribución: FelipeKF3 Correcciónes: Bruno Lamoglia , corinthiano7.0 e mais 4 »
  1. Sweet Child O' Mine - Guns N' Roses mantiene 2.925 exhibiciones
  2. Wonderwall - Oasis mantiene 2.186 exhibiciones
  3. Hey Jude - The Beatles mantiene 1.958 exhibiciones
  4. Nothing Else Matters - Metallica mantiene 1.804 exhibiciones
  5. Wake Me Up - Avicii mantiene 1.773 exhibiciones
  6. Stairway To Heaven - Led Zeppelin mantiene 1.661 exhibiciones
  7. When I Was Your Man - Bruno Mars mantiene 1.589 exhibiciones
  8. More Than Words - Extreme mantiene 1.450 exhibiciones
  9. Get Lucky - Daft Punk mantiene 1.367 exhibiciones
  10. Don't Let Me Down - The Beatles mantiene 1.360 exhibiciones
  1. The Beatles- mantiene 25.078 exhibiciones
  2. Metallica- mantiene 8.619 exhibiciones
  3. Guns N' Roses- mantiene 7.929 exhibiciones
  4. Nirvana- mantiene 6.626 exhibiciones
  5. Red Hot Chili Peppers- mantiene 5.725 exhibiciones
  6. One Direction- mantiene 5.420 exhibiciones
  7. Bruno Mars- mantiene 4.865 exhibiciones
  8. Coldplay- mantiene 4.745 exhibiciones
  9. Oasis- mantiene 4.554 exhibiciones
  10. Green Day- mantiene 3.603 exhibiciones
Exhibir acordes »

Acordes y tabs

Aprenda

Studio Sol

©1996 - 2014 Cifra Club · el primero, mayor y más accedido del Brasil · 329 mil músicas · 5.9 millones de personas registradas

publicidad
cerrar