Til We Ain't Strangers Anymore

Bon Jovi

 Bon Jovi
Tono: G
		
(intro) G  D  Em  C


E|-7-8-8/10-10101010-88-77-5h7p7-3-3h5||-3-5--5/10-10101010-88-77-5h7p5-3-3p5-5/7-3|
B|------------------------------------||-------------------------------------------|
G|------------------------------------||-------------------------------------------|
D|------------------------------------||-------------------------------------------|
A|------------------------------------||-------------------------------------------|
E|------------------------------------||-------------------------------------------|


G
It might be hard to be lovers
         D
But it's harder to be friends
     Em
Baby pull down the covers
     C
It's time you let me in
      G
Maybe light a couple candles
D             D#º                Em  Bm  A
I'll just go ahead and lock the door
           C                D7
If you just talk to me baby
                         G
Till we ain't strangers anymore

G
Lay your head on my pillow
       D
I sit beside you on the bed
Em
Don't you think it's time we say
      C
Some things we haven't said
             Bm
It ain't too late to get back to that place
    D              D#º            Em    Bm  A
Back to where, we thought it was before
              C         D
Why don't you look at me
                               G  (D/F#)
Till we ain't strangers anymore

(chords)
 (D/F#)            Em           C
Sometimes it's hard to love me
               G                D
Sometimes it's hard to love you too
           Em          C
I know it's hard believing
          G             D
That love can pull us through
            Bm    C
It would be so easy
   G
To live your life
                      Am   C
With one foot out the door
     C            D
Just hold me baby
                            C
Till we ain't strangers anymore

(solo) C G D
       C G D  Bm  C  (D)


E|----------------------------------15-15-14-14-12-12------------------------------------\15----15----15\17-17B|--17B-17B-17B-17P15H17P15------------
B|--------------------12------------------------------15-15-13-13-12-12--10H12----10---------12----15----------------------------------17--17B-17B
G|-12B-12---10-12\14-----12----------------------------------------------------12----12B|------------------------------------------------------------
D|--------------------------------------------------------------------------------------------------------------------------------------------------
A|--------------------------------------------------------------------------------------------------------------------------------------------------
E|---------------------------12/5-------------------------------------------------------------------------------------------------------------------
-----------------------


(chorus)
             Em          C
It's hard to find forgivness
        G                 D
When we just turn out the lights
             Em         C
It's hard to say you're sorry
         G                  D
When you can't turn off the light
            Bm    C
It would be so easy
   G
To spend your whole damn life
             Am
Just keeping strong

(bridge)
       G
So lets get down to it baby
      D
There ain't no need to lie
Em
Tell me who you think you see
         C
When you look into my eyes
             G
Lets put our two hearts back together
    D                D#º           Em    Bm
And leave the broken pieces on the floor
     C                D
Make love with me baby
                             G   D  Em  C
Till we ain't strangers anymore
                      G  D   Em  C
We're not strangers anymore (We're not strangers)
                     G  D  Em  C
We're not strangers anymore

(final solo)

    G  D  Em  C    G  D  Em  C   (till fade out)
E|--------------------------------------------------------
B|------------------12------------8-8-7-7-----------------
G|-12B-12-10-12/14-----12---7--9----------9-9-7-7-7B-7B-7-
D|--------------------------------------------------------
A|--------------------------------------------------------
E|--------------------------------------------------------



E|----------------------------------15-15-14-14-12-12------------------------------------
B|--------------------12------------------------------15-15-13-13-12-12--10H12----10-----
G|-12B-12---10-12\14-----12----------------------------------------------------12----12B-
D|---------------------------------------------------------------------------------------
A|---------------------------------------------------------------------------------------
E|---------------------------12/5--------------------------------------------------------
355 exhibiciónes

Comentarios 0

Composición: Bacalov / James Scheffer / Jon Bon Jovi / Murilo Antunes / Nick Hodgson / Ricardo Brown / Richie Sambora
Ese no és el compositor? Avisenos.
Contribución: Felipe-Fontoura Correcciónes: Péu-Péu , kaka e mais 7 »
Exhibir acordes »
publicidad
cerrar