Wanted Dead Or Alive

Bon Jovi

 Bon Jovi
Tono: G
		
(ideal para Violão/guitarra de 12 cordas)

(intro)


E |-------13----------12----------10----------8--------5---------3---------1------|
B |-------------------------------------------------------------------------------|
G |----14----14----12----12----10----10----9----9----5----5----4----4----2----2---| 2x
D |--0-----------0-----------0----------0---------0---------0---------0---------0-|
A |-------------------------------------------------------------------------------|
E |-------------------------------------------------------------------------------|



          C     F    Dadd2           C     F    Dadd2
E |-----------------0--------|------------------0--------|---------------|
B |-------------------3---3--|--------------------3---3--|---------------|
G |---------------------2---2|----------------------2---2|---------------|
D |--------0-3-0-------------|---------0-3-0-------------|---------------|
A |--0-0-3-------------------|---0-0-3-------------------|---0-0-3-2--0--|
E |--------------------------|---------------------------|---------------|


    D         (D Dsus4 Dadd9)  C                   G
It's all the same,             only the names will change.
   C     G                 C  F     D
Ev'ryday,  seems we're wasting away.
    D         (D  Dsus4  Dadd9)   C                   G
Another place,                  where the faces are so cold.
   C        G              C  F     D
I travel all night just  get back  home.

(refrão)
        C      G       F             D  Dadd2
I'm  a cowboy,   on a steel horse I ride
        C   G      F          D  Dadd2
I'm wanted,  dead or alive.
    C   G      F          D  Dadd2
Wanted,  dead or alive.

    D             (D#4  D  Dadd9)    C                  G
Sometimes I sleep,             sometimes it's not for days.
C                 G   C             F        D
And people I meet,  always go their seperate ways.
    D             (D#4  D  Dadd9)    C          G
Sometimes you tell the day by the bottle that you drink.
C                    G       C       F      D
And times when you're  alone all you do is drink.

(refrão)
(intro 2x)
(solo)

                            AH|-----------------|
E |-----------------------------------------------------
B |-----------------------------------------------------
G |-------7-7-7---7--7-7--------------------------------
D |-------x-x-x---x--x-x-------------3-5b7-5b7-5b7-5b7-3
A |-------5/3/5---5--3/5---3-5--------------------------
E |-----------------------------------------------------


                                                      AH

E |-------------13-15-15b17-15-13-15-15b17-------------------------------------------
B |-------13-15----------------------------------------------------------------------
G |-12-14----------------------------------------------------------------------------
D |----------------------------------------------------5b7---------7/5-5/7-----------
A |--------------------------------------------12/----------0-0----5/3-3/5------12/--
E |--------------------------------------------12/------------------------------12/--


          AH        AH|-----|

E |-----------------------------------------------------
B |-----------------------------------------------------
G |-----------------------------------------------------
D |--------3---------3-5-5b7-3------3-----------5b7-3---
A |---3-5----5--3-5-------------------5-3p0h3-5---------
E |-----------------------------------------------------


                    AH|------| PM|---------|

E |------------------------------------------------x-----
B |-----13---------15------------------------------3-----
G |--12---12-10-12-----12b14-10--------------------2-----
D |-------------------------------7-7-5-9-7-5------0-----
A |-------------------------------5-5-3-7-5-3------------
E |------------------------------------------------------


(***após o solo as notas power chords, inclusive o refrão
(lembra-se que o guitarrista troca o violão de 12 cordas por uma guitarra antes do solo)

(refrão)

 D5                     C5                   G5
I walk these streets, a loaded six string on my back.
  C5              G5         C5        F5      D5
I play for keeps,  cause I might not make it back.
 D5                        C5             G5
I've been everywhere, still I'm standing tall.
     C5               G5              C5    F5   D5
I've seen a million faces, and I've rocked them all.

(passagem) ( é usada nas versões ao vivo. O richie sambora faz este improviso)

E |--------------------------------------10-----------10---------------------------------
B |------------------------------------10---12b e vbr----13-10---------------------------
G |-------------10-12(bend-------10-12b------------------------12b-10----12-10-----------
D |----------12-----vibrato)--12--------------------------------------12------12-/-12-10-
A |-------12-----------------------------------------------------------------------------
E |-10-13--------------------------------------------------------------------------------



D |------------------------
A |-12/10--/8--------------
E |-----------10-----------


(refrão 2x)
(intro 2x) D é o último acorde

(versos e refrão)

(versos)


         D         (D Dsus4 Dadd9)   C                   G
E |---2-------2-----2-3-2-0--0^2--3--------3----------3-----------|
B |---3-------3-----3-3-3-3--3----3--------3----------3-----------|
G |---2-------2-----2-2-2-2--2----0--------0----------0-----------|
D |---0-------0-----0-------------2--------2----------0-----------2
A |-------------------------------3--------2----------2------02b0-
E |---------------------------------------------------3-----------|

  It's all the same,              only the names will change.
  Another place,                  where the faces are so cold.



        C        G               C  F     D
E |--3---3----3----3-------3--3--1-----2--2-3-0^2------------|
B |--3---3----3----3-------3--3--1-----3--3-3-3-3------------|
G |--0---0----0----0-------0--0--0-----2--2-2-2-2------------|
D |--2---2----0----0-------0--2--3-----0--0-0-0-0------------|
A |--3---3----2----2-------2--3--3---------------------------|
E |-----------3----3-------3---------------------------------|

    Ev'ryday,     seems we're wasting away.
  I travel all night just    get back  home.           I'm

(refrão)


         C        G              F             D
E |---3----3---3--------------1-----1-------2-----2-3-0^2-----|
B |---3----3---3--------------1-----1-------3-----3-3-3-3-----|
G |---0--------0--------------0-----0-------2-----2-2-2-2-----|
D |---2--------0--------------3-----3-------0-----0-0-0-0-----|
A |---3-----------------------3-----3-------------------------|
E |------------3----------------------------------------------|

    a cowboy,            on a steel horse I ride.          I'm


E |---3----3---3----------------------2--------------|
B |---3----3---3----------------------3--------------|
G |---0--------0-------------2--2--2--2--------------|
D |---2--------0-------------x--0--3--0--------------|
A |---3----------------------3-----------------------|
E |------------3-------------------------------------|

     wanted,               dead or alive.
     wanted,               dead or alive.

Comentarios 42

  • Lucas Lucas: Publicado en 28/08/2014 14:59

    Ae galera assiste eu tocando essa musica, é só ir em "você tocando" meu video é "Wanted Dead Or Alive - Bon Jovi ( Acoustic Guitar Cover)

  • Pedro Pedro: Publicado en 24/08/2014 22:09

    Por favor, façam video-aula dessa musica

  • willian willian: Publicado en 16/01/2014 18:12

    mandem a vídeo-aula

  • larissa larissa: Publicado en 04/11/2013 16:56

    a musica ta errada por gentileza atualizem..

  • Deniercio Deniercio: Publicado en 04/11/2013 16:50

    Essa musica ta errada como um todo, por favor, corrijam!

  • Deniercio Deniercio: Publicado en 02/11/2013 12:38

    Video aula dessa musica por gentileza! =)

  • aaron aaron: Publicado en 26/09/2013 12:01

    esses solos n tão certos não

  • Joao Joao: Publicado en 03/07/2013 18:39

    To aprendendo ainda n sei quase nada queria uma video aula ensinando o solo da musica =/

  • jvckennedy jvckennedy: Publicado en 14/12/2012 14:12

    o solo da intro é fácil os outros q são difíceis... vídeo aula !!!!!!!

  • mathmorison mathmorison: Publicado en 20/11/2012 17:44

    No início ta errado não é um C é um C9... I'm a cowboy(essa parte é um C9)

Exhibiendo 10 de 42 comentarios Mostrar más ver todo »
Composición: James Scheffer / Jon Bon Jovi / Nick Hodgson / Ricardo Brown / Richie Sambora
Ese no és el compositor? Avisenos.
Contribución: da SIlva Correcciónes: Renan Camargo »
Exhibir acordes »
publicidad
cerrar