Hail To The King

Avenged Sevenfold

 Avenged Sevenfold
Tono: F#
Sintonización: Eb Ab Db Gb Bb Eb
		
Notation:

  b      : bend
  r      : release (after a bend)
  h      : hammer-on
  p      : pull-off
  \      : slide down
  /      : slide up
  ~      : vibrato
  x      : mute note
  P.M.___: palm mute
  <  >   : natural harmonic


For 2 guitars
Tuning: Drop Db (=C#)
118 BPM

Intro:

-part 1: (x2, lead guitar only)


Eb|-12p0-0-14p0-0-15p0-0-14p0-0-14p0-0-0-|-12p0-0-14p0-0-15p0-0-14p0-0-14p0-0-0-|
Bb|--------------------------------------|--------------------------------------|
Gb|--------------------------------------|--------------------------------------|
Db|--------------------------------------|--------------------------------------|
Ab|--------------------------------------|--------------------------------------|
Db|--------------------------------------|--------------------------------------|




Eb|-12p0-0-14p0-0-15p0-0-14p0-0-14p0-0-0-|-17p12p0-17p12p0-15p12p0-15p12p0-14p0-10-14-|
Bb|--------------------------------------|--------------------------------------------|
Gb|--------------------------------------|--------------------------------------------|
Db|--------------------------------------|--------------------------------------------|
Ab|--------------------------------------|--------------------------------------------|
Db|--------------------------------------|--------------------------------------------|



-part 2: (x4)


Eb|-12p0-0-14p0-0-15p0-0-14p0-0-14p0-0-0-|-12p0-0-14p0-0-15p0-0-14p0-0-14p0-0-0-|
Bb|--------------------------------------|--------------------------------------|
Gb|--------------------------------------|--------------------------------------|
Db|--------------------------------------|--------------------------------------|
Ab|--------------------------------------|--------------------------------------|
Db|--------------------------------------|--------------------------------------|

  |
  |
Eb|--------------------------------------|--------------------------------------|
Bb|--------------------------------------|--------------------------------------|
Gb|--------------------------------------|--------------------------------------|
Db|--------------------------------------|--------------------------------------|
Ab|-2--------4--------5--------x---x-----|----------x---x------------x---x------|
Db|-2--------4--------5--------x---x-----|----------x---x------------x---x------|



Eb|-12p0-0-14p0-0-15p0-0-14p0-0-14p0-0-0-|-17p12p0-17p12p0-15p12p0-15p12p0-14p0-10-14-|
Bb|--------------------------------------|--------------------------------------------|
Gb|--------------------------------------|--------------------------------------------|
Db|--------------------------------------|--------------------------------------------|
Ab|--------------------------------------|--------------------------------------------|
Db|--------------------------------------|--------------------------------------------|

  |
  |
Eb|--------------------------------------|--------------------------------------------|
Bb|--------------------------------------|--------------------------------------------|
Gb|--------------------------------------|--------------------------------------------|
Db|--------------------------------------|--------------------------------------------|
Ab|-2--------4--------5--------x---x-----|-------------x---x-------------x---x--------|
Db|-2--------4--------5--------x---x-----|-------------x---x-------------x---x--------|


4th time, rhythm guitar plays:


Eb|--------------------------------------|--------------------------------------------|
Bb|--------------------------------------|--------------------------------------------|
Gb|--------------------------------------|--------------------------------------------|
Db|--------------------------------------|--------------------------------------------|
Ab|-2--------4--------5--------x---0-----|--------------------------------------------|
Db|-2--------4--------5--------x---0-----|---------------------5----4----0------------|


-part 3: (x2)


Eb|---------------------------------|---------------------------------|
Bb|-5h8-7p0-5h8-7p0-5h8-7p0-5h8-7p0-|-5h8-7p0-5h8-7p0-5h8-7p0-5h8-7p0-|
Gb|---------------------------------|---------------------------------|
Db|---------------------------------|---------------------------------|
Ab|---------------------------------|---------------------------------|
Db|---------------------------------|---------------------------------|

  

Eb|---------------------------------|---------------------------------|
Bb|---------------------------------|---------------------------------|
Gb|---------------------------------|---------------------------------|
Db|---------------------------------|---------------------------------|
Ab|-2-------------------5---0---2---|---------------------5---0---2---|
Db|-2-------------------5---0---2---|---------------------5---0---2---|



Eb|---------------------------------|---------------------------------|
Bb|-5h8-7p0-5h8-7p0-5h8-7p0-5h8-7p0-|-3h5-3p0-3h5-3p0-3h5-3p0-3h5-3p0-|
Gb|---------------------------------|---------------------------------|
Db|---------------------------------|---------------------------------|
Ab|---------------------------------|---------------------------------|
Db|---------------------------------|---------------------------------|



Eb|---------------------------------|---------------------------------|
Bb|---------------------------------|---------------------------------|
Gb|---------------------------------|---------------------------------|
Db|---------------------------------|---------------------------------|
Ab|---------------------5---4-------|-0---------------5---4---0-------|
Db|---------------------5---4-------|-0---------------5---4---0-------|


Verse 1: (x2)


Eb|---------------------------------|---------------------------------|
Bb|-5h8-7p0-5h8-7p0-5h8-7p0-5h8-7p0-|-5h8-7p0-5h8-7p0-5h8-7p0-5h8-7p0-|
Gb|---------------------------------|---------------------------------|
Db|---------------------------------|---------------------------------|
Ab|---------------------------------|---------------------------------|
Db|---------------------------------|---------------------------------|

  

Eb|---------------------------------|---------------------------------|
Bb|---------------------------------|---------------------------------|
Gb|---------------------------------|---------------------------------|
Db|---------------------------------|---------------------------------|
Ab|-2-------2---2---2---2---2---2---|-2---2---2---2---2---5---0-------|
Db|-2-------2---2---2---2---2---2---|-2---2---2---2---2---5---0-------|

            P.M.________________________________________


Eb|---------------------------------|-----------------------------------|
Bb|-5h8-7p0-5h8-7p0-5h8-7p0-5h8-7p0-|-7h10-7p0-7h10-7p0-3h5-3p0-3h5-3p0-|
Gb|---------------------------------|-----------------------------------|
Db|---------------------------------|-----------------------------------|
Ab|---------------------------------|-----------------------------------|
Db|---------------------------------|-----------------------------------|

  

Eb|---------------------------------|-----------------------------------|
Bb|---------------------------------|-----------------------------------|
Gb|---------------------------------|-----------------------------------|
Db|---------------------------------|-----------------------------------|
Ab|-2-------2---2---2---2---2---2---|-0---------------------------------|
Db|-2-------2---2---2---2---2---2---|-0-----------------5---4---0-------|

            P.M.__________________

Bridge:

Eb|---------------------------------------------|
Bb|-10h13-10p0-10h13-10p0-10h13-10p0-10h13-10p0-|
Gb|---------------------------------------------|
Db|---------------------------------------------|
Ab|---------------------------------------------|
Db|---------------------------------------------|
  |
  |
Eb|---------------------------------------------|
Bb|---------------------------------------------|
Gb|---------------------------------------------|
Db|---------------------------------------------|
Ab|-7---------------------------10--------------|
Db|-7---------------------------10--------------|


Eb|---------------------------------------------|
Bb|-10h13-10p0-10h13-10p0-10h13-10p0-10h13-10p0-|
Gb|---------------------------------------------|
Db|---------------------------------------------|
Ab|---------------------------------------------|
Db|---------------------------------------------|
  |
  |
Eb|---------------------------------------------|
Bb|---------------------------------------------|
Gb|---------------------------------------------|
Db|---------------------------------------------|
Ab|-7---------------------------10---5----------|
Db|-7---------------------------10---5----------|


Eb|---------------------------------------------|
Bb|-10h13-10p0-10h13-10p0-10h13-10p0-10h13-10p0-|
Gb|---------------------------------------------|
Db|---------------------------------------------|
Ab|---------------------------------------------|
Db|---------------------------------------------|
  |
  |
Eb|---------------------------------------------|
Bb|---------------------------------------------|
Gb|---------------------------------------------|
Db|---------------------------------------------|
Ab|-7---------------------------10--------------|
Db|-7---------------------------10--------------|


Eb|---------------------------------------------|
Bb|-10h13-10p0-10h13-10p0-10h13-10p0-10h13-10p0-|
Gb|---------------------------------------------|
Db|---------------------------------------------|
Ab|---------------------------------------------|
Db|---------------------------------------------|
  |
  |
Eb|---------------------------------------------|
Bb|---------------------------------------------|
Gb|---------------------------------------------|
Db|---------------------------------------------|
Ab|-7---------------------------10---5----------|
Db|-7---------------------------10---5----------|

-

Eb|---------------------------------------------|
Bb|-12h15-12p0-12h15-12p0-12h15-12p0-12h15-12p0-|
Gb|---------------------------------------------|
Db|---------------------------------------------|
Ab|---------------------------------------------|
Db|---------------------------------------------|
  |
  |
Eb|---------------------------------------------|
Bb|---------------------------------------------|
Gb|---------------------------------------------|
Db|---------------------------------------------|
Ab|-9---------------------------12--------------|
Db|-9---------------------------12--------------|


Eb|---------------------------------------------|
Bb|-12h15-12p0-12h15-12p0-12h15-12p0-12h15-12p0-|
Gb|---------------------------------------------|
Db|---------------------------------------------|
Ab|---------------------------------------------|
Db|---------------------------------------------|
  |
  |
Eb|---------------------------------------------|
Bb|---------------------------------------------|
Gb|---------------------------------------------|
Db|---------------------------------------------|
Ab|-9---------------------------12---7----------|
Db|-9---------------------------12---7----------|

Eb|---------------------------------------------|
Bb|-12h15-12p0-12h15-12p0-12h15-12p0-12h15-12p0-|
Gb|---------------------------------------------|
Db|---------------------------------------------|
Ab|---------------------------------------------|
Db|---------------------------------------------|
  |
  |
Eb|---------------------------------------------|
Bb|---------------------------------------------|
Gb|---------------------------------------------|
Db|---------------------------------------------|
Ab|-9---------------------------12--------------|
Db|-9---------------------------12--------------|


Eb|---------------------------------------------|
Bb|-12h15-12p0-12h15-12p0-12h15-12p0-12h15-12p0-|
Gb|---------------------------------------------|
Db|---------------------------------------------|
Ab|---------------------------------------------|
Db|---------------------------------------------|
  |
  |
Eb|---------------------------------------------|
Bb|---------------------------------------------|
Gb|---------------------------------------------|
Db|---------------------------------------------|
Ab|-9-------------------------------------------|
Db|-9-------------------------------------------|



Chorus: "Hail to the King..." (x2)

Eb|-------(/7)-(3)-(5)(/7)-----(5)--|---------------------------------|
Bb|--------/8---5---7--/8-------7---|---------------------------------|
Gb|---------------------------------|---------------------------------|
Db|---------------------------------|---------------------------------|
Ab|---------------------------------|---------------------------------|
Db|---------------------------------|---------------------------------|
  |
  |
Eb|---------------------------------|---------------------------------|
Bb|---------------------------------|---------------------------------|
Gb|---------------------------------|---------------------------------|
Db|---------------------------------|---------------------------------|
Ab|-2-------------------0---2---0---|---------------------------------|
Db|-2-------------------0---2---0---|-----------------5---4---0-------|


Eb|-------(/7)-(3)-(5)(/7)-----(5)--|---------------------------------|
Bb|--------/8---5---7--/8-------7---|---------------------------------|
Gb|---------------------------------|---------------------------------|
Db|---------------------------------|---------------------------------|
Ab|---------------------------------|---------------------------------|
Db|---------------------------------|---------------------------------|
  |
  |
Eb|---------------------------------|---------------------------------|
Bb|---------------------------------|---------------------------------|
Gb|-5-------------------------------|---------------------------------|
Db|-5-----------------------5-/-7---|---------------------------------|
Ab|-3-------------------0---3-/-5---|---------------------------------|
Db|---------------------------------|-----------------5---4---0-------|



Post chorus:

Eb|---------------------------------|---------------------------------|
Bb|-5-0-0-7-0-0-8-0-0-7-0-0-5-0-5-0-|-5-0-0-7-0-0-8-0-0-7-0-0-5-0-5-0-|
Gb|---------------------------------|---------------------------------|
Db|---------------------------------|---------------------------------|
Ab|---------------------------------|---------------------------------|
Db|---------------------------------|---------------------------------|
  |
  |
Eb|---------------------------------|---------------------------------|
Bb|---------------------------------|---------------------------------|
Gb|---------------------------------|---------------------------------|
Db|---------------------------------|---------------------------------|
Ab|-2-------4-------5-------x---x---|----------x---x----------x---x---|
Db|-2-------4-------5-------x---x---|----------x---x----------x---x---|




Eb|---------------------------------|---------------------------------|
Bb|-5-0-0-7-0-0-8-0-0-7-0-0-5-0/10--|---------------------------------|
Gb|---------------------------------|---------------------------------|
Db|---------------------------------|---------------------------------|
Ab|---------------------------------|---------------------------------|
Db|---------------------------------|---------------------------------|
  |
  |
Eb|---------------------------------|---------------------------------|
Bb|---------------------------------|---------------------------------|
Gb|---------------------------------|---------------------------------|
Db|---------------------------------|---------------------------------|
Ab|-2-------4-------5-------x---0---|---------------------------------|
Db|-2-------4-------5-------x---0---|-----------------5---4---0-------|



Verse 2 (same as Verse 1)

Bridge

Chorus

Post chorus



Guitar Solo:

-part 1

Eb|---------------------------------|-----------------------------------|
Bb|-5h8p5p0-5h8p5p0-5h8p5p0-5h8p5p0-|-7h10p7p0-7h10p7p0-4h7p4p0-4h7p4p0-|
Gb|---------------------------------|-----------------------------------|
Db|---------------------------------|-----------------------------------|
Ab|---------------------------------|-----------------------------------|
Db|---------------------------------|-----------------------------------|
  |
  |
Eb|---------------------------------|-----------------------------------|
Bb|---------------------------------|-----------------------------------|
Gb|---------------------------------|-------------------4---------------|
Db|---------------------------------|-------------------4---------------|
Ab|-2-------------------------------|-0-----------------2---------------|
Db|-2-------------------------------|-0---------------------------------|


Eb|---------------------------------|-----------------------------------|
Bb|-5h8p5p0-5h8p5p0-5h8p5p0-5h8p5p0-|-7h10p7p0-7h10p7p0-4h7p4p0-4h7p4p0-|
Gb|---------------------------------|-----------------------------------|
Db|---------------------------------|-----------------------------------|
Ab|---------------------------------|-----------------------------------|
Db|---------------------------------|-----------------------------------|
  |
  |
Eb|---------------------------------|-----------------------------------|
Bb|---------------------------------|-----------------------------------|
Gb|---------------------------------|-------------------4---------------|
Db|---------------------------------|-------------------4---------------|
Ab|-2-------------------------------|-0-----------------2---------------|
Db|-2-------------------------------|-0---------------------------------|


Eb|---------------------------------|-----------------------------------------|
Bb|-5h8p5p0-5h8p5p0-5h8p5p0-5h8p5p0-|-10h13p10p0-10h13p10p0-7h10p7p0-7h10p7p0-|
Gb|---------------------------------|-----------------------------------------|
Db|---------------------------------|-----------------------------------------|
Ab|---------------------------------|-----------------------------------------|
Db|---------------------------------|-----------------------------------------|
  |
  |
Eb|---------------------------------|-----------------------------------------|
Bb|---------------------------------|-----------------------------------------|
Gb|---------------------------------|-2---------------------------------------|
Db|---------------------------------|-2---------------------------------------|
Ab|-2-------------------------------|-0---------------------4-----------------|
Db|-2-------------------------------|-----------------------4-----------------|


Eb|-------------------------------------|-----------------------------------|
Bb|-8h12p8p0-8h12p8p0-7h11p7p0-7h11p7p0-|/12--------------------------------|
Gb|-------------------------------------|-----------------------------------|
Db|-------------------------------------|-----------------------------------|
Ab|-------------------------------------|-----------------------------------|
Db|-------------------------------------|-----------------------------------|
  |
  |
Eb|-------------------------------------|-----------------------------------|
Bb|-------------------------------------|-----------------------------------|
Gb|-------------------------------------|-4---------------------------------|
Db|-------------------------------------|-4---------------------------------|
Ab|-5-----------------4-----------------|-2---------------------------------|
Db|-5-----------------4-----------------|-----------------------------------|


-part 2:

Eb|---------------------------------|---------------------------------|
Bb|---------------------------------|---------------------------------|
Gb|---------------------------------|----------------/17------16------|
Db|-9---------8--9-/16------14------|-13--------14-16-----------------|
Ab|---------------------------------|---------------------------------|
Db|---------------------------------|---------------------------------|
  |
  |
Eb|---------------------------------|---------------------------------|
Bb|---------------------------------|---------------------------------|
Gb|---------------------------------|---------------------------------|
Db|---------------------------------|-4---4---4---4---4---4---4---4---|
Ab|-2-------2---2---2---2---2---2---|-2---2---2---2---2---2---2---2---|
Db|-2-------2---2---2---2---2---2---|---------------------------------|
           P.M._____________________________________________________


Eb|---------------------------------|---------------------------------|
Bb|---------------------------------|16b17----1717171717--------------|
Gb|-14--------16-17-16--------16-17-|---------------------------------|
Db|---------------------------------|---------------------------------|
Ab|---------------------------------|---------------------------------|
Db|---------------------------------|---------------------------------|
  |
  |
Eb|---------------------------------|---------------------------------|
Bb|---------------------------------|---------------------------------|
Gb|---------------------------------|---------------------------------|
Db|-2---2---2---2---2---2---2---2---|---------------------------------|
Ab|-0---0---0---0---0---0---0---0---|-2---2---2---2---2---2---2---2---|
Db|---------------------------------|-2---2---2---2---2---2---2---2---|
   P.M.______________________________________________________________


Eb|---------------------------------|/19-------17-15------------------|
Bb|-16--------17-19-16--------17-19-|----------------17---------------|
Gb|---------------------------------|---------------------------------|
Db|---------------------------------|---------------------------------|
Ab|---------------------------------|---------------------------------|
Db|---------------------------------|---------------------------------|
  |
  |
Eb|---------------------------------|---------------------------------|
Bb|---------------------------------|---------------------------------|
Gb|---------------------------------|---------------------------------|
Db|-4---4---4---4---4---4---4---4---|---------------------------------|
Ab|-2---2---2---2---2---2---2---2---|-2---2---2---2---2---2---2---2---|
Db|---------------------------------|-2---2---2---2---2---2---2---2---|
   P.M.______________________________________________________________


Eb|-19---20---17---19---20----17----|-19------------------------------|
Bb|---------------------------------|---------------------------------|
Gb|---------------------------------|---------------------------------|
Db|---------------------------------|---------------------------------|
Ab|---------------------------------|---------------------------------|
Db|---------------------------------|---------------------------------|
  |
  |
Eb|---------------------------------|---------------------------------|
Bb|---------------------------------|---------------------------------|
Gb|---------------------------------|---------------------------------|
Db|-4---4---4---4---4---4---4---4---|-4-------------------------------|
Ab|-2---2---2---2---2---2---2---2---|-2-------------------------------|
Db|---------------------------------|-----------------5---4---0-------|
   P.M.___________________________


-part 3:

Eb|-----------------12h14-15--14-12-|11h14p11-------------------------|
Bb|---------------12----------------|--------12-----------------------|
Gb|--------9h11/12------------------|----------12p11-14p12p11---------|
Db|-------9-------------------------|------------------------14-13----|
Ab|-7h9h10--------------------------|---------------------------------|
Db|---------------------------------|---------------------------------|
  |
  |
Eb|---------------------------------|---------------------------------|
Bb|---------------------------------|---------------------------------|
Gb|---------------------------------|---------------------------------|
Db|---------------------------------|-4---4---4---4---4---4---4---4---|
Ab|-2---2---2---2---2---2---2---2---|-2---2---2---2---2---2---2---2---|
Db|-2---2---2---2---2---2---2---2---|---------------------------------|
       P.M.__________________________________________________________


Eb|-----12-171717-----12-161616-----12-151515-----12-141414-|
Bb|---13------------13------------13------------13----------|
Gb|-14------------14------------14------------14------------|
Db|---------------------------------------------------------|
Ab|---------------------------------------------------------|
Db|---------------------------------------------------------|
  |
  |
Eb|---------------------------------------------------------|
Bb|---------------------------------------------------------|
Gb|---------------------------------------------------------|
Db|-2------2------2------2------2------2------2------2------|
Ab|-0------0------0------0------0------0------0------0------|
Db|---------------------------------------------------------|
   P.M._________________________________________________


Eb|-14h15p14-12---------------------------------------------|
Bb|------------12-------------------------------------------|
Gb|--------------12-11h12p11-9------------------------------|
Db|---------------------------9-----------------------------|
Ab|----------------------------10\7-------------------------|
Db|---------------------------------------------------------|
  |
  |
Eb|---------------------------------------------------------|
Bb|---------------------------------------------------------|
Gb|---------------------------------------------------------|
Db|---------------------------------------------------------|
Ab|-2------2------2------2------2------2------2------2------|
Db|-2------2------2------2------2------2------2------2------|
   P.M._________________________________________________


Eb|---------------------------------------11|-12--------------------------------------|
Bb|---------------------------------11-12---|---12------------------------------------|
Gb|-----------------------8-9-11-12---------|-----12\11-------------------------------|
Db|-------------------8-9-------------------|-----------14----------------------------|
Ab|---------------6-9-----------------------|-------------14--------------------------|
Db|-9h10p9-7-9-10---------------------------|---------------17-16-14------------------|
  |
  |
Eb|-----------------------------------------|-----------------------------------------|
Bb|-----------------------------------------|-----------------------------------------|
Gb|-----------------------------------------|-----------------------------------------|
Db|-4----4----4----4----4----4----4----4----|-----------------------------------------|
Ab|-2----2----2----2----2----2----2----2----|-2----2----2----2----2----2----2----2----|
Db|-----------------------------------------|-2----2----2----2----2----2----2----2----|
   P.M._____________________________________________________________________________


Eb|---------------------------------|---------------------------------|
Bb|---------------------------------|---------------------------------|
Gb|-9----12----11-9-8---------------|---------------------------------|
Db|------------------10-9-7---------|---------------------------------|
Ab|------------------------10-9-7---|---------------------------------|
Db|------------------------------10-|-8b9-----------------------------|
  |
  |
Eb|---------------------------------|---------------------------------|
Bb|---------------------------------|---------------------------------|
Gb|---------------------------------|-4-------------------------------|
Db|-4-------------------------------|-4-------------------------------|
Ab|-2---------------2---------------|-2-------------------------------|
Db|-1---------------2---------------|---------------------------------|



"There's a taste of fear..." (guitars: same as intro)


Chorus (x2)


Outro:

Eb|---------------------------------|---------------------------------|
Bb|-5-0-0-7-0-0-8-0-0-7-0-0-5-0-5-0-|-5-0-0-7-0-0-8-0-0-7-0-0-5-0-5-0-|
Gb|---------------------------------|---------------------------------|
Db|---------------------------------|---------------------------------|
Ab|---------------------------------|---------------------------------|
Db|---------------------------------|---------------------------------|
  |
  |
Eb|---------------------------------|---------------------------------|
Bb|---------------------------------|---------------------------------|
Gb|---------------------------------|---------------------------------|
Db|---------------------------------|---------------------------------|
Ab|-2-------4-------5-------x---x---|----------x---x----------x---x---|
Db|-2-------4-------5-------x---x---|----------x---x----------x---x---|


Eb|---------------------------------|---------------------------------|
Bb|-5-0-0-7-0-0-8-0-0-7-0-0-7--\3---|---------------------------------|
Gb|---------------------------------|---------------------------------|
Db|---------------------------------|---------------------------------|
Ab|---------------------------------|---------------------------------|
Db|---------------------------------|---------------------------------|
  |
  |
Eb|---------------------------------|---------------------------------|
Bb|---------------------------------|---------------------------------|
Gb|---------------------------------|---------------------------------|
Db|---------------------------------|---------------------------------|
Ab|-2-------4-------5-------x---0---|---------------------------------|
Db|-2-------4-------5-------x---0---|---------------------------------|
Texto Columnas
Alterar tom ½ tono ½ tono
sintonización acordes esconder tabs más »

Comentarios 0

Composición: Matt Shadows
Ese no és el compositor? Avisenos.
Contribución: Ricardo. Correcciónes: sanchoo »
  1. Sweet Child O' Mine - Guns N' Roses mantiene 3.210 exhibiciones
  2. Wonderwall - Oasis mantiene 2.326 exhibiciones
  3. All Of Me - John Legend mantiene 2.112 exhibiciones
  4. Nothing Else Matters - Metallica mantiene 1.884 exhibiciones
  5. Stairway To Heaven - Led Zeppelin mantiene 1.612 exhibiciones
  6. When I Was Your Man - Bruno Mars mantiene 1.566 exhibiciones
  7. More Than Words - Extreme mantiene 1.421 exhibiciones
  8. The Scientist - Coldplay mantiene 1.395 exhibiciones
  9. I'm Yours - Jason Mraz mantiene 1.379 exhibiciones
  10. Hey Jude - The Beatles mantiene 1.275 exhibiciones
  1. The Beatles- mantiene 22.332 exhibiciones
  2. Guns N' Roses- mantiene 7.877 exhibiciones
  3. Metallica- mantiene 7.403 exhibiciones
  4. Coldplay- mantiene 5.304 exhibiciones
  5. Nirvana- mantiene 5.118 exhibiciones
  6. Oasis- mantiene 5.037 exhibiciones
  7. One Direction- mantiene 4.960 exhibiciones
  8. Red Hot Chili Peppers- mantiene 4.934 exhibiciones
  9. Bruno Mars- mantiene 4.845 exhibiciones
  10. Ed Sheeran- mantiene 4.211 exhibiciones
Exhibir acordes »

Acordes y tabs

Aprenda

Studio Sol

©1996 - 2014 Cifra Club · el primero, mayor y más accedido del Brasil · 341 mil músicas · 6.3 millones de personas registradas

publicidad
cerrar