Buried Alive

Avenged Sevenfold

 Avenged Sevenfold
Tono: C
		
(Esse começo é totalmente dedilhado, tanto na gravação quanto ao vivo, apesar que o Zacky toca dropado ao vivo, mas ele não toca os dedilhados da base da música, o resto é apenas tocar duas notas na frente. Mas é apenas ao vivo, portanto não é necessário dropar a guitarra)



E|---------8-------10p8------8-------7-------------------------------------|
B|----/10-----10---------10-------8----8--10---8/10-----5---6p5----5-------|
G|---------------------------------------------------7----7------7---------|
D|-------------------------------------------------------------------------|
A|-----0--------------------------7------------------5---------------------|
E|-----------------------------8--------------------------------------8--7-|



E|----------------------------8-----10p8-----8-------7-----------------------|
B|---5--------------------/10---10--------10------8----8--10--8/10-----------|
G|-5---4--7\5--4h5p4---------------------------------------------------------|
D|-------------------5-------------------------------------------------------|
A|-------------------------0----------------------7--------------------------|
E|-5--------------------------------------------8----------------------------|



E|-------------------------------------------------|
B|---5----6p5------------8--10--9h10p9--7--9--10---|
G|-7---7-------7--9--10----------------------------|
D|-------------------------------------------------|
A|-5-----------5--7--8----------7------------------|
E|-------------------------------------------------|



E|----------------------------------------------------------------------------|
B|---/10-8-10-----------------/10-8-10------------------/10-8-10--------------|
G|-----------\7--5-7-5--------------------\7-5/7-5--------------\7-5-7-5------|
D|---------------------7-5------------------------------------------------7-5-|
A|---/0-----------------------------------\5----------------------------------|
E|-----------\7---------------/8------------------------/0------\7------------|



E|------5--------------|
B|--7-8-7----5--5------|
G|------------5--5-----|
D|---------------------|
A|--5--------3---------|
E|---------------------|



E|----------------------------------------------------------------------------|
B|---/10-8-10-----------------/10-8-10------------------/10-8-10--------------|
G|-----------\7--5-7-5--------------------\7-5/7-5--------------\7-5-7-5------|
D|---------------------7-5------------------------------------------------7-5-|
A|---/0-----------------------------------\5----------------------------------|
E|-----------\7---------------/8------------------------/0------\7------------|



E|---------------------|
B|--7-8-7----5--5------|
G|------------5--5-----|
D|---------------------|
A|--5--------3---------|
E|---------------------|



E|-----------------------------5(harmonic)----------------------------------5(harmonico)------|
B|---------------5---5-----------------------------------5---5--------------------------------|
G|--/5~~----4~~------------2~~--------------/5~~----4~~------------2~~------------------------|
D|------------------------------------------------------------------------------3(harmonico)--|
A|--------------------------------------------------------------------------------------------|
E|---5------3--------1-----------------------5------3--------1--------------------------------|



Guitarra 1 (Solo/Distorção)



E|------------------------------------------------------------------------------|
B|-/10--10-10-12-8/5--5--5--6--6--6--1--1/5--/10--10-10-12-8/5-5-5-5-6-6-6-8-10-|
G|------------------------------------------------------------------------------|
D|------------------------------------------------------------------------------|
A|------------------------------------------------------------------------------|
E|------------------------------------------------------------------------------|



E|--------------------12-10-12----12-10-12-13-12-10----/12--13p12----|
B|-9-9-9-10-12-10-10-----------13-------------------13------------12-|
G|-------------------------------------------------------------------|
D|-------------------------------------------------------------------|
A|-------------------------------------------------------------------|
E|-------------------------------------------------------------------|



E|-------12-10-12-----12-10-12-13-15-13-10b12-10---12-10---------------|
B|-10-10----------13-------------------------------------13-12-10-9-10-|
G|---------------------------------------------------------------------|
D|---------------------------------------------------------------------|
A|---------------------------------------------------------------------|
E|---------------------------------------------------------------------|



Guitarra 2 (Solo/Distorção)



E|------------------------------------------------------------------------------------------------|
B|-13--13-13-15-13-\8--10--10-10-\5-/9-----13--13-13-15-13-\8--10-10-10-10-12-13--12-12-12-13-15--|
G|------------------------------------------------------------------------------------------------|
D|------------------------------------------------------------------------------------------------|
A|------------------------------------------------------------------------------------------------|
E|------------------------------------------------------------------------------------------------|



E|-----------------------------/17-15-13-12-------------------------------------------|
B|-13-13-13-12-13-----13-12-13--------------/13-15p13-----13-13-13-12-13-----13-12-13-|
G|----------------12----------------------------------13-----------------12-----------|
D|------------------------------------------------------------------------------------|
A|------------------------------------------------------------------------------------|
E|------------------------------------------------------------------------------------|



E|----12--------------------------------------|
B|-15----15-12b13--13-12-10---------/13-------|
G|--------------------------12-10-9-----------|
D|--------------------------------------------|
A|--------------------------------------------|
E|--------------------------------------------|



Verso Dedilhado:  Am  C  F  E (4x)


E|---------0-----------------------------1--------------------------|
B|-----------1----------1------------1-----1------------0-----------|
G|-----2--------------0------------2---2-----2--------1-------------| 8X (contado junto como base do
D|---2---2----------2--------0-2-3-------------3----2------2-0------|    solo da intro com distorção)
A|-0------------2-3--------3-----------------------------------3-2--|
E|------------------------------------------------0-----------------|


Am                    C
Take the time just to listen

         F                    E
When the voices screaming are much too loud

Am                 C
Take a look in the distance

        F      E
Try and see it all

Am                   C
Chances are that you might find

        F                 E
That we share a common discomfort now

Am                   C
I feel I'm walking a fine line

        F            E
Tell me only if it's real


Pré-Refrão Base: Dm  C  G
                (Dm  C  G  E)

Dm        C     G
Still I'm on my way

G
(On and on it goes)

Dm     C       G E
Vacant hope to take

Guitarra 1:

E|---13~-12~-12\10~-7-8-10-12-13~-12~-15~-16~*----|
B|------------------------------------------------|
G|------------------------------------------------|
D|------------------------------------------------|
A|------------------------------------------------|
E|------------------------------------------------|


Guitarra 2:

E|------------------------------------------------|
B|---15~-13~-13\12~-8-10-12-13-15~-13~-12~-13~*---|
G|------------------------------------------------|
D|------------------------------------------------|
A|------------------------------------------------|
E|------------------------------------------------|


Refrão:

A5     E5    F5               (Frase)

Hey! I can't live in here for another day

A5       E5  F5               (Frase)
Darkness has kept the light concealed

E5   D5 F5 E5
Grim as ever

A5      E5 F5                 (Frase)
Hold on to faith as I dig another grave

A5        E5  F5              E5
Meanwhile the mice endure the wheel

E5
Real as ever

E5      D5   F5  E5
And it seems I've been buried alive!

Guitarra 1:

PM                                                           . .   . .    . .


E|------------------------------------------------------------------------------|
B|------------------------------------------------------------------------------|
G|-2-2-2-----------------------2-2-2-----------------------9-----7-----10-----9-|
D|-2-2-2--2-3-3-3-3------------2-2-2-2-3-3-3-3-------------9-----7-----10-----9-|
A|-0-0-0--2-3-3-3-3-2-2-2-3-5--0-0-0-2-3-3-3-3-2-2-2-3-5---7-7-7-5-5-5-8--8-8-7-|
E|--------0-1-1-1-1------------------0-1-1-1-1----------------------------------|





E|---------------------------------------------------------------------|
B|---------------------------------------------------------------------|
G|-2-2-2----------------------2-2-2------------------------9~----------|
D|-2-2-2--2-3-3-3-3-----------2-2-2-2-3-3-3-3--------------9~----------|
A|-0-0-0--2-3-3-3-3-2-2-2-3-5-0-0-0-2-3-3-3-3-2-2-2-3-5----7~----------|
E|--------0-1-1-1-1-----------------0-1-1-1-1--------------------------|


PM              . .   . .   . .    . .


E|-------------------------------------------------------------------------|
B|-------------------------------------------------------------------------|
G|-9-9-9~-----------9-----7-----10-----9-----------------------------------|
D|-9-9-9~-----------9-----7-----10-----9-----------------------------------|
A|-7-7-7~-------7-7-7-5-5-5-8-8-8--7-7-7-----------------------------------|
E|-------------------------------------------------------------------------|



Guitarra 2:

PM                                                           . .   . .    . .


E|------------------------------------------------------------------------------|
B|------------------------------------------------------------------------------|
G|-2-2-2-----------------------2-2-2-----------------------9-----7-----10-----9-|
D|-2-2-2--2-3-3-3-3------------2-2-2-2-3-3-3-3-------------9-----7-----10-----9-|
A|-0-0-0--2-3-3-3-3------------0-0-0-2-3-3-3-3-------------7-7-7-5-5-5-8--8-8-7-|
E|--------0-1-1-1-1--3-3-3-5-7-------0-1-1-1-1--3-3-3-5--7----------------------|





E|-------------------------------------------------------------|
B|-------------------------------------------------------------|
G|-2-2-2-----------------------2-2-2-----------------------9~--|
D|-2-2-2--2-3-3-3-3------------2-2-2-2-3-3-3-3-------------9~--|
A|-0-0-0--2-3-3-3-3------------0-0-0-2-3-3-3-3-------------7~--|
E|--------0-1-1-1-1--3-3-3-5-7-------0-1-1-1-1--3-3-3-5--7-----|


PM              . .   . .   . .    . .


E|-------------------------------------------------------------------------|
B|-------------------------------------------------------------------------|
G|-9-9-9~-----------9-----7-----10-----9-----------------------------------|
D|-9-9-9~-----------9-----7-----10-----9-----------------------------------|
A|-7-7-7~-------7-7-7-5-5-5-8-8-8--7-7-7-----------------------------------|
E|-------------------------------------------------------------------------|




Guitarra 1 (Segundo solo/Distorção)



E|---------------------------------------------------------------------------------------------|
B|-/10--10-10-12-8/5--5--5--6--6--6--1--1/5--/10--10-10-12-8/5-5-5-5-6-6-6-8-10-9-9-9-10-12-10-|
G|---------------------------------------------------------------------------------------------|
D|---------------------------------------------------------------------------------------------|
A|---------------------------------------------------------------------------------------------|
E|---------------------------------------------------------------------------------------------|



Guitarra 2 (Segundo solo/Distorção)



E|------------------------------------------------------------------------------------------------|
B|-13--13-13-15-13-\8--10--10-10-\5-/9-----13--13-13-15-13-\8--10-10-10-10-12-13--12-12-12-13-15--|
G|------------------------------------------------------------------------------------------------|
D|------------------------------------------------------------------------------------------------|
A|------------------------------------------------------------------------------------------------|
E|------------------------------------------------------------------------------------------------|





(Daqui em diante até chegar o pré-solo, no refrão, os dedilhados, acordes, frases etc se repetem)



Refrão:

Guitarra 1:

PM                                                           . .   . .    . .


E|------------------------------------------------------------------------------|
B|------------------------------------------------------------------------------|
G|-2-2-2-----------------------2-2-2-----------------------9-----7-----10-----9-|
D|-2-2-2--2-3-3-3-3------------2-2-2-2-3-3-3-3-------------9-----7-----10-----9-|
A|-0-0-0--2-3-3-3-3-2-2-2-3-5--0-0-0-2-3-3-3-3-2-2-2-3-5---7-7-7-5-5-5-8--8-8-7-|
E|--------0-1-1-1-1------------------0-1-1-1-1----------------------------------|





E|---------------------------------------------------------------------|
B|---------------------------------------------------------------------|
G|-2-2-2----------------------2-2-2------------------------9~----------|
D|-2-2-2--2-3-3-3-3-----------2-2-2-2-3-3-3-3--------------9~----------|
A|-0-0-0--2-3-3-3-3-2-2-2-3-5-0-0-0-2-3-3-3-3-2-2-2-3-5----7~----------|
E|--------0-1-1-1-1-----------------0-1-1-1-1--------------------------|


PM              . .   . .   . .    . .


E|----------------------------------------------------------------------------------|
B|----------------------------------------------------------------------------------|
G|-9-9-9~-----------9-----7-----10-----9-----9~--9-9-9~-------9-----7-----10-----9--|
D|-9-9-9~-----------9-----7-----10-----9-----9~--9-9-9~-------9-----7-----10-----9--|
A|-7-7-7~-------7-7-7-5-5-5-8-8-8--7-7-7-7-7-7~--7-7-7~---7-7-7-5-5-5-8-8-8--7-7-7--|
E|----------------------------------------------------------------------------------|





Guitarra 2:

PM                                                           . .   . .    . .


E|------------------------------------------------------------------------------|
B|------------------------------------------------------------------------------|
G|-2-2-2-----------------------2-2-2-----------------------9-----7-----10-----9-|
D|-2-2-2--2-3-3-3-3------------2-2-2-2-3-3-3-3-------------9-----7-----10-----9-|
A|-0-0-0--2-3-3-3-3------------0-0-0-2-3-3-3-3-------------7-7-7-5-5-5-8--8-8-7-|
E|--------0-1-1-1-1--3-3-3-5-7-------0-1-1-1-1--3-3-3-5--7----------------------|





E|-------------------------------------------------------------|
B|-------------------------------------------------------------|
G|-2-2-2-----------------------2-2-2-----------------------9~--|
D|-2-2-2--2-3-3-3-3------------2-2-2-2-3-3-3-3-------------9~--|
A|-0-0-0--2-3-3-3-3------------0-0-0-2-3-3-3-3-------------7~--|
E|--------0-1-1-1-1--3-3-3-5-7-------0-1-1-1-1--3-3-3-5--7-----|


PM              . .   . .   . .    . .


E|----------------------------------------------------------------------------------|
B|----------------------------------------------------------------------------------|
G|-9-9-9~-----------9-----7-----10-----9-----9~--9-9-9~-------9-----7-----10-----9--|
D|-9-9-9~-----------9-----7-----10-----9-----9~--9-9-9~-------9-----7-----10-----9--|
A|-7-7-7~-------7-7-7-5-5-5-8-8-8--7-7-7-7-7-7~--7-7-7~---7-7-7-5-5-5-8-8-8--7-7-7--|
E|----------------------------------------------------------------------------------|






Solo:

Guitarra 1:

E|---------------------------------------------------------|
B|-/10--10-10-12-13-\8-8-5-5/10-6-6-5--8-8-8-10-10-12-12---|
G|---------------------------------------------------------|
D|---------------------------------------------------------|
A|---------------------------------------------------------|
E|---------------------------------------------------------|



E|------------------------------------------------------|
B|-10--10-10-12-13-\8-8-5-5/10-6-6-/10--9-9-9--10--12---|
G|------------------------------------------------------|
D|------------------------------------------------------|
A|------------------------------------------------------|
E|------------------------------------------------------|



E|-12p8-----12p8-----12p8-----12p8-----12p8------|
B|------10-------10-------10-------10-------10---|
G|---------------------------------------------9-|
D|-----------------------------------------------|
A|-----------------------------------------------|
E|-----------------------------------------------|



E|-12p8-----12p8-----12p8-----12p8-----12p8-----|
B|------8--------8--------8--------8--------8---|
G|--------------------------------------------8-|
D|----------------------------------------------|
A|----------------------------------------------|
E|----------------------------------------------|



E|-13p8-----13p8-----13p8-----13p8-----13p8------|
B|------10-------10-------10-------10-------10---|
G|---------------------------------------------9-|
D|-----------------------------------------------|
A|-----------------------------------------------|
E|-----------------------------------------------|



E|-10p7-----10p7-----10p7-----10p7-----10p7-----|
B|------8--------8--------8--------8--------8---|
G|--------------------------------------------7-|
D|----------------------------------------------|
A|----------------------------------------------|
E|----------------------------------------------|



E|-12p8-----12p8-----12p8-----12p8-----12p8------|
B|------10-------10-------10-------10-------10---|
G|---------------------------------------------9-|
D|-----------------------------------------------|
A|-----------------------------------------------|
E|-----------------------------------------------|



E|-12p8-----12p8-----12p8-----12p8-----12p8-----|
B|------8--------8--------8--------8--------8---|
G|--------------------------------------------8-|
D|----------------------------------------------|
A|----------------------------------------------|
E|----------------------------------------------|



E|-13p8-----13p8-----13p8-----13p8-----13p8------|
B|------10-------10-------10-------10-------10---|
G|---------------------------------------------9-|
D|-----------------------------------------------|
A|-----------------------------------------------|
E|-----------------------------------------------|



E|-12-13-12-11-12-13-12-11--16-17-16-15------------13-15-17~---------------|
B|----------------------------------------13-15-16-------------------------|
G|-------------------------------------------------------------------------|
D|-------------------------------------------------------------------------|
A|-------------------------------------------------------------------------|
E|-------------------------------------------------------------------------|



Guitarra 2:

E|-8--8-8-10-12-\8-8-\3--3/10-\5-5-3--7-7-7-8-8-10-10--|
B|-----------------------------------------------------|
G|-----------------------------------------------------| 2X
D|-----------------------------------------------------|
A|-----------------------------------------------------|
E|-----------------------------------------------------|



E|-17p12-----17p12-----17p12-----17p12-----17p12----------|
B|-------13--------13--------13--------13--------13-------|
G|--------------------------------------------------14----|
D|--------------------------------------------------------|
A|--------------------------------------------------------|
E|--------------------------------------------------------|



E|-15p12-----15p12-----15p12-----15p12-----15p12--------|
B|-------13--------13--------13--------13--------13-----|
G|--------------------------------------------------12--|
D|------------------------------------------------------|
A|------------------------------------------------------|
E|------------------------------------------------------|



E|-17p13-----17p13-----17p13-----17p13-----17p13--------|
B|-------15--------15--------15--------15--------15-----|
G|--------------------------------------------------14--|
D|------------------------------------------------------|
A|------------------------------------------------------|
E|------------------------------------------------------|



E|-15p12-----15p12-----15p12-----15p12-----15p12--------|
B|-------12--------12--------12--------12--------12-----|
G|--------------------------------------------------12--|
D|------------------------------------------------------|
A|------------------------------------------------------|
E|------------------------------------------------------|



E|-17p12-----17p12-----17p12-----17p12-----17p12----------|
B|-------13--------13--------13--------13--------13-------|
G|--------------------------------------------------14----|
D|--------------------------------------------------------|
A|--------------------------------------------------------|
E|--------------------------------------------------------|



E|-15p12-----15p12-----15p12-----15p12-----15p12--------|
B|-------13--------13--------13--------13--------13-----|
G|--------------------------------------------------12--|
D|------------------------------------------------------|
A|------------------------------------------------------|
E|------------------------------------------------------|



E|-17p13-----17p13-----17p13-----17p13-----17p13--------|
B|-------15--------15--------15--------15--------15-----|
G|--------------------------------------------------14--|
D|------------------------------------------------------|
A|------------------------------------------------------|
E|------------------------------------------------------|



E|-16-17-16-15-16-17-16-15--19-20-19-17----------17-17/20----|
B|--------------------------------------------17-------------|
G|-----------------------------------------19----------------|
D|--------------------------------------19-------------------|
A|-----------------------------------------------------------|
E|-----------------------------------------------------------|






Segunda parte do solo (Guitarra única)

E|-(palhetada rápida)-5--8--12--17---8--13--17--16-|
B|-------------------------------------------------|
G|-------------------------------------------------|
D|-------------------------------------------------|
A|-------------------------------------------------|
E|-------------------------------------------------|


E|-(ainda palhetada rápida)-5--8--12--17---19--20--19--11-|

B|--------------------------------------------------------|
G|--------------------------------------------------------|
D|--------------------------------------------------------|
A|--------------------------------------------------------|
E|--------------------------------------------------------|



E|-17p12----------12-19p12-17p12---------12-19p12-17p12----------12--|
B|-------13-12-13---------------13----13----------------13----13-----|
G|---------------------------------14----------------------13--------|
D|-------------------------------------------------------------------|
A|-------------------------------------------------------------------|
E|-------------------------------------------------------------------|



E|-17p12-16p12----------12-16-12-|
B|-------------12----12----------|
G|----------------13-------------|
D|-------------------------------|
A|-------------------------------|
E|-------------------------------|



E|-(palhetada rápida)-5--8--12--17--12--13--11--12--7--8--4--5~-|
B|--------------------------------------------------------------|
G|--------------------------------------------------------------|
D|--------------------------------------------------------------|
A|--------------------------------------------------------------|
E|--------------------------------------------------------------|



E|---------------8-10-11b12---------------------12-13-15b17-|
B|----------8-10--------------------------13-15-------------|
G|------8-9-------------------------12-14-------------------|
D|-7-10-----------------------13-14-------------------------|
A|----------------------------------------------------------|
E|----------------------------------------------------------|



E|----------------------17-19-19b20-17-------------------------------------|
B|-------------17-19-20----------------20b22-20-19-17----------------------|
G|----17-19-20----------------------------------------19-18-17~-17h19p17---|
D|-19----------------------------------------------------------------------|
A|-------------------------------------------------------------------------|
E|-------------------------------------------------------------------------|



E|-7/9-10-11-12p8------------12/13------------13-15-15b17--(h20)----|
B|---------------10--------10-----10--------10----------------------|
G|-----------------9------9---------9------9------------------------|
D|------------------10--10-----------10--10-------------------------|
A|--------------------12---------------13---------------------------|
E|------------------------------------------------------------------|




Base da parte do solo com duas guitarras (2X)

E|--------------------------------------------------------------|
B|--------------------------------------------------------------|
G|-2-----2-----4---5-----5-----5---7-----7-----7----------------|
D|-2-----2-----4---5-----5-----5---7-----7-----7---5--5-5-5-7-9-|
A|-0-0-0-0-0-0-2-2-3-3-3-3-3-3-3-3-5-5-5-5-5-5-5-5-5--5-5-5-7-9-|
E|-------------------------------------------------3--3-3-3-5-7-|



E|--------------------------------------------------|
B|--------------------------------------------------|
G|-2-----2-----4---5-----5-----5---7-----7-----7----|
D|-2-----2-----4---5-----5-----5---7-----7-----7----|
A|-0-0-0-0-0-0-2-2-3-3-3-3-3-3-3-3-5-5-5-5-5-5-5-5--|
E|--------------------------------------------------|



E|---------------------------|
B|---------------------------|
G|-----9-----7-----10-----9--|
D|-----9-----7-----10-----9--|
A|-7-7-7-5-5-5-8-8-8--7-7-7--|
E|---------------------------|




Base com parte do solo com guitarra única

E|-----------------------------------|
B|-----------------------------------|
G|-2-----2---------------------------|4X
D|-2-----2-----2---3-----3-----5-----|
A|-0-0-0-0-0-0-2---3-----3-----5-----|
E|-------------0-0-1-1-1-1-1-1-3-3---|



E|-----------------------------------------------------------------|
B|-----------------------------------------------------------------|
G|-----------------------------------------------------------------|
D|-7-----7-----7---6-----6-----6---5-----5-----5---4-----4-----4---|
A|-7-----7-----7---6-----6-----6---5-----5-----5---4-----4-----4---|
E|-5-5-5-5-5-5-5-5-4-4-4-4-4-4-4-4-3-3-3-3-3-3-3-3-2-2-2-2-2-2-2-2-|



E|----------------------------------------|
B|----------------------------------------|
G|------------9-----7-----10-----9-x-x-2~-|
D|-3~---------9-----7-----10-----9-x-x-2~-|
A|-3~-----7-7-7-5-5-5-8-8-8--7-7-7-x-x-0~-|
E|-1~-------------------------------------|





Partes finais:

Primeira parte:

E|-----------------|
B|-----------------|
G|-----------------|7X
D|-2-----2-----2---|
A|-2-----2-----2---|
E|-0-0-0-0-0-0-0-0-|


Guitarra 1:         Guitarra 2:

E|-----------------|-----------------|
B|-----------------|-----------------|
G|-----------------|-----------------|
D|-----------------|-----------------|
A|-5-5-5-4-4-3-3---|-9-9-9-8-8-7-7---|
E|-3-3-3-2-2-1-1---|-7-7-7-6-6-5-5---|




Segunda parte (2X):

E|-----------------|
B|-----------------|
G|-----------------|3X
D|-2-----2-----2---|
A|-2-----2-----2---|
E|-0-0-0-0-0-0-0-0-|


Guitarra 1:         Guitarra 2:

E|-----------------|-----------------|
B|-----------------|-----------------|
G|-----------------|-----------------|
D|-----------------|-----------------|
A|-5-5-5-4-4-3-3---|-9-9-9-8-8-7-7---|
E|-3-3-3-2-2-1-1---|-7-7-7-6-6-5-5---|


(Até aqui: 3X)

Guitarra 1:         Guitarra 2:

E|-----------------------|----------------------|
B|-----------------------|----------------------|
G|-----------------------|----------------------|(2X)
D|-----------------------|-4-4-4-5-7--5-5-5-7-9-|
A|-6-6-6-7-9--7-7-7-9-10-|-2-2-2-3-5--3-3-3-5-7-|
E|-4-4-4-5-7--5-5-5-7-8--|----------------------|




Parte da base do solo final:

E|-----------------|
B|-----------------|
G|-----------------|8X
D|-2-----2-----2---|
A|-2-----2-----2---|
E|-0-0-0-0-0-0-0-0-|





Solo final:

E|-------------------------------------------------|
B|-15b17~--15b-15-14-12----------------------------|
G|----------------------15-14-12-------14----12----|
D|-------------------------------14-12----14----14-|
A|-------------------------------------------------|
E|-------------------------------------------------|



E|-------------------12-17-15-12--------------------|
B|-------------12-15-------------17-15-12-----------|
G|-------12-15----------------------------15-14-12--|
D|-12-14--------------------------------------------|
A|--------------------------------------------------|
E|--------------------------------------------------|



E|-17-15-12----------18-15-12--------------------|
B|----------17-15-12----------17-15-12--15b17~---|
G|-----------------------------------------------|
D|-----------------------------------------------|
A|-----------------------------------------------|
E|-----------------------------------------------|


Guitarra 1:                     Guitarra única:  

E|-----------19-18-------17-15-|-----------------------------|
B|--17----17----------17-------|-----------------------------|
G|-----16----------16----------|-14-12-14-12-------15-14-12~-|
D|-----------------------------|-------------14-12-----------|
A|-----------------------------|-----------------------------|
E|-----------------------------|-----------------------------|


Guitarra 1 (finalizando o solo):

E|----------19-18-------17-15~--17b19-17b19~--|
B|-17----17----------17-----------------------|
G|----16----------16--------------------------|
D|--------------------------------------------|
A|--------------------------------------------|
E|--------------------------------------------|


Guitarra 2:                     Finalizando o solo (guitarra 2)

E|-----------------------------|------------------------------------------|
B|----------20-19-------19-17--|----------20-19-------19-17--19b20-19b20~-|
G|-16----16----------16--------|-16----16----------16---------------------|
D|----17----------17-----------|----17----------17------------------------|
A|-----------------------------|------------------------------------------|
E|-----------------------------|------------------------------------------|





Quarta parte:

E|--------------------------------------|
B|--------------------------------------|
G|--------------------------------------|4X
D|-2------------------------------------|
A|-2--5-4--3-2---2-2-2--2-2-2--2-2-2----|
E|-0--3-2--1-0---0-0-0--0-0-0--0-0-0----|



Quinta parte:
Guitarra 1:                               Guitarra 2:

E|--------------------------------------|--------------------------------------|
B|--------------------------------------|--------------------------------------|
G|--------------------------------------|--------------------------------------|4X
D|-2------------------------------------|--------------------------------------|
A|-2--5-4--3-2---2-2-2-2-2-2-2-2-2-2-2--|-5--9-8--7-6---2-2-2-2-2-2-2-2-2-2-2--|
E|-0--3-2--1-0---0-0-0-0-0-0-0-0-0-0-0--|-3--7-6--5-3---0-0-0-0-0-0-0-0-0-0-0--|



Última parte
Guitarra 1:                             Guitarra 2:

E|------------------------------------|------------------------------------|
B|------------------------------------|------------------------------------|
G|------------------------------------|------------------------------------|4X
D|-2----------------------------------|------------------------------------|
A|-2--5-4--3-2---2-2-2--2-2-2--2-2-2--|-5--9-8--7-6---2-2-2--2-2-2--2-2-2--|
E|-0--3-2--1-0---0-0-0--0-0-0--0-0-0--|-3--7-6--5-3---0-0-0--0-0-0--0-0-0--|



Guitarra 1:      Guitarra 2:

E|--------------|-------------|
B|--------------|-------------|
G|--------------|-------------|
D|-2---------2--|-------------|
A|-2--5-4--3-2--|-5--9-8--7-6-|
E|-0--3-2--1-0--|-3--7-6--5-3-|

Comentarios 58

  • Pedro Pedro: Publicado en 12/12/2014 03:20

    Cifra eu adoro essa musica do A7X mas FAZ VIDEO AULA vcs são minha unica salvação !!!!!

  • Samuel Samuel: Publicado en 27/09/2014 14:13

    Por Favor pessoal ai do CifraClub, Vídeo-Aula para as músicas da A7X, eles têm muitos fãs e nós gostamos de tocar todas as suas músicas.

  • luiz matheus luiz matheus: Publicado en 24/09/2014 20:23

    VIDEO AULA !!

  • Arthur Arthur: Publicado en 18/12/2013 01:36

    geral só sabe reclamar ¬¬

  • Lucas Lucas: Publicado en 28/11/2013 17:58

    Tá um pouquinho errado !

  • simao20slb simao20slb: Publicado en 05/10/2013 16:02

    Corrigi uns pequenos erros na introudução

    • Viny2723 Viny2723: Publicado en 15/10/2013 23:26

      Ai, essas cifras do inicio estao certinhas mesmo? e pq tava vendo uns videos, em q a introduçao nao tem meio q nada haver com o inicio..

    • Viny2723 Viny2723: Publicado en 15/10/2013 23:27

      tem como vc me ajudar? pq sera q e diferente?

  • christofy christofy: Publicado en 07/09/2013 18:11

    Em vez de reclamarem tirem de ouvido '-'

    • christofy christofy: Publicado en 07/09/2013 18:12

      Se não souberem não reclamem :p

Exhibiendo 10 de 58 comentarios Mostrar más ver todo »
Composición: Tony Sciuto
Ese no és el compositor? Avisenos.
Contribución: kabelo Correcciónes: raphael.santiago.18 , schmidt11 e mais 15 »
Exhibir acordes »
publicidad
cerrar