Tono: A
		
Intro 2x: A  F#m  E  D


E|------9----------9----------9--------9--9--9--9--9--|
B|---10---10----10---10----10---10----10-10-10-10-10--|
G|-9----------9----------9-------------9--9--9--9--9--|
D|----------------------------------------------------|
A|----------------------------------------------------|
E|----------------------------------------------------|



 F#m
E|------9----------9----------9--------9--9--9--9--9-|
B|---10---10----10---10----10---10----10-10-10-10-10-|
G|-7----------7----------7-------------7--7--7--7--7-|
D|---------------------------------------------------|
A|---------------------------------------------------|
E|---------------------------------------------------|



 E
E|------12----------12----------12-----12-12-12-12-12-|
B|---12----12----12----12----12---12---12-12-12-12-12-|
G|-9-----------9-----------9------------9--9--9--9--9-|
D|----------------------------------------------------|
A|----------------------------------------------------|
E|----------------------------------------------------|



 F#m
E|------9----------9----------9--------9--9--9--9--9-|
B|---10---10----10---10----10---10----10-10-10-10-10-|
G|-7----------7----------7-------------7--7--7--7--7-|
D|---------------------------------------------------|
A|---------------------------------------------------|
E|---------------------------------------------------|


A
Tem ciúmes de mim

D/F#
O seu amor e como um furacão
 E                                   D9
E eu me rendo ao vento de sua misericórdia

A                                      D/F#
Então de repente não vejo mais minhas aflições

eu só vejo a glória
E
E percebo quão maravilhoso Ele é
     D9
e o tanto que Ele me quer (2x)

A          D/F#
Ô Ele me amou
            E
Ô Ele me ama
            D9
Ele me amou

A
Me ama, Ele
F#m
Me ama, Ele
E
Me ama, Ele
   D9
Me ama (2x)

A
Somos sua herança e Ele é o nosso galardão

D/F#
Seu olhar de graça nos atrai a redenção
E
Se a graça é um oceano
         D9
estamos afogando
A
O céu se une à terra

como um beijo apaixonado
D/F#
O coração dispara em meu peito acelerado
E
Não tenho tempo para perder com ressentimentos
          D9
Quando penso que Ele

A
Me ama, Ele
F#m
Me ama, Ele
E
Me ama, Ele
   D9
Me ama (2x)

( A  F#m  E  D ) (2x)
Texto Columnas
Alterar tom ½ tono ½ tono
sintonización acordes esconder tabs más »
284 exhibiciónes

Comentarios 20

  • nettorocha01 nettorocha01: Publicado en 12/04/2014 01:33

    Música ótima pra improvisar no baixo! Com uns lances de penta fica ainda mais legal!"

  • Beatriz Beatriz: Publicado en 07/04/2014 09:02

    muuiiitooo lindo , eu amei so quee esige muito das maos mais eu
    vou tentar

  • lucas.lemos.52012 lucas.lemos.52012: Publicado en 11/02/2014 14:02

    muito bonita essa musica!!

  • saimofoox saimofoox: Publicado en 02/12/2013 12:06

    muito legal ei pessoal poe o solo dessa musica ai porfavor

  • irmaojunior98 irmaojunior98: Publicado en 13/09/2013 10:25

    Viu Gente pra quem quiser ja tem a versão com o dedilhado...

  • Mateus Mateus: Publicado en 14/08/2013 09:57

    qua é o dedilhado

    • irmaojunior98 irmaojunior98: Publicado en 09/09/2013 10:32

      estou prestes a enviar espera um pouquinho e ele ta pra cer aceitado...

  • Henrique Henrique: Publicado en 18/05/2013 18:53

    Muito Boom!! :D Aprendi Rapidinho

  • eve350 eve350: Publicado en 27/12/2012 20:00

    Liiinda e facil!

Exhibiendo 10 de 20 comentarios Mostrar más ver todo »
Composición: John Mark McMilan
Ese no és el compositor? Avisenos.
Contribución: filipeds Correcciónes: mateus_1263 , marcos e mais 3 »
  1. Sweet Child O' Mine - Guns N' Roses mantiene 2.746 exhibiciones
  2. Wonderwall - Oasis mantiene 1.998 exhibiciones
  3. When I Was Your Man - Bruno Mars mantiene 1.623 exhibiciones
  4. Nothing Else Matters - Metallica mantiene 1.570 exhibiciones
  5. Stairway To Heaven - Led Zeppelin mantiene 1.549 exhibiciones
  6. Hey Jude - The Beatles mantiene 1.442 exhibiciones
  7. All Of Me - John Legend mantiene 1.420 exhibiciones
  8. More Than Words - Extreme mantiene 1.346 exhibiciones
  9. The Scientist - Coldplay mantiene 1.313 exhibiciones
  10. Wake Me Up - Avicii mantiene 1.140 exhibiciones
  1. The Beatles- mantiene 20.830 exhibiciones
  2. Guns N' Roses- mantiene 6.945 exhibiciones
  3. Metallica- mantiene 6.797 exhibiciones
  4. Coldplay- mantiene 5.138 exhibiciones
  5. One Direction- mantiene 5.035 exhibiciones
  6. Red Hot Chili Peppers- mantiene 4.876 exhibiciones
  7. Nirvana- mantiene 4.876 exhibiciones
  8. Bruno Mars- mantiene 4.760 exhibiciones
  9. Oasis- mantiene 4.399 exhibiciones
  10. Green Day- mantiene 3.558 exhibiciones
Exhibir acordes »

Acordes y tabs

Aprenda

Studio Sol

©1996 - 2014 Cifra Club · el primero, mayor y más accedido del Brasil · 335 mil músicas · 6.1 millones de personas registradas

publicidad
cerrar