Milagre

André Valadão

 André Valadão Compositor: André Valadão
Tono: C
		
Intro: Am7  G/B  C9  C/E  F  Am7  G/B  F Dm7


E|--------------------------------------------------|
B|--------------------------------------------------|
G|-2/5-4-5---2/5-4-5-5/7--5-4-5-4-5-----------------|
D|----------------------------------5--5/7----------|
A|--------------------------------------------------|
E|--------------------------------------------------|



E|--------------------------------------------------|
B|---------------8-6-5------------------------------|
G|-2/5-4-5-----5-------7-5-7b9-5---7----------------|
D|---------5-7------------------7-------------------|
A|--------------------------------------------------|
E|--------------------------------------------------|



E|----------------------7-8--10-8-7---------5/8---------|
B|--------------------8---------------8-6-5-----10~~----|
G|----------------7/9-----------------------------------|
D|-----------9/10---------------------------------------|
A|------7-10--------------------------------------------|
E|--7/8-------------------------------------------------|


      Am9              Am9/G
Posso crer que em minha vida
	  F/C         C9
O milagre vai acontecer
      Am9      Am9/G
Posso ver as promessas             (2x)
	 F/C           C9/E
Sendo liberadas sobre mim
	Dm7   	    G4 G
Sendo liberadas sobre mim

              F	  G     Am7  (na 2ª vez: Am7 G/B C9)
Hoje o meu milagre vai chegar
C9/E	        F   G   Am7
Eu vou crer, não vou duvidar
    C/E         F    G       Am7
O preço que foi pago ali na cruz
   G/B F/A          G4 G
Me dá vitória nesta hora

Solo: F  G4  F/A G/B  Dm7  C/E  F  G Am7  G/B

    Am7        Am7/G
Tua morte, tua cruz, teu sangue
     F	       C9
Derramado no calvário
       Am7           Am7/G
Está selado, foi consumado
	  F          C9/E
Vivo, hoje livre do pecado
           Dm7          G4  G
Vivo as promessas dos milagres

	     F	 G     Am7
Hoje o meu milagre vai chegar
C9/E	        F   G    Am7
Eu vou crer, não vou duvidar
        C/E     F     G       Am7
O preço que foi pago ali na cruz
   G/B   F/A        G/B
Me dá vitória nesta hora
       F/C          Gsus (Bb9  Gsus Bb9 Gsus)
Me dá vitória nesta hora

Solo 2:

E|----------------------------------------------------------------------|
B|-8/10-10-10-12-12--10-10-12-12--13--12--13--12--12--13--13-13---------|
G|----------------------------------------------------------------------|
D|-5/7--7---7--9---9---7---7--9--9---10---9---10---9---9---10--10--10---|
A|----------------------------------------------------------------------|
E|----------------------------------------------------------------------|



E|--------------------------------------------------------------------------------|
B|-15--15--13--13--15--15---15-----8/10---10--10---------10----8------------------|
G|----------------------------------------------------------7^^-------9------7^-5-|
D|-12--12--10--10--12--12---12-----5/7----7---7-----------------------------------|
A|--------------------------------------------------------------------------------|
E|--------------------------------------------------------------------------------|



E|------------------------------------------------------|
B|------------------------------------------------------|
G|-----5/7-5--------------------------------------------|
D|--7---------7--5-5/7-5----5/7-5-----------------------|
A|--------------------------7--------7--5--3----3/5-----|
E|----------------------------------------------5-------|


Am7  G/B   C9 Dm7 C/E  F     G      Am7
Hoje  o    me______u milagre vai chegar
                  F   G    Am7
Eu vou crer, não vou duvidar
  C/E           F    G       Am7
O preço que foi pago ali na cruz
   G/B  F/A         G
Me dá vitória nesta hora

C/E          Am7   G/B    C9
Hoje o meu milagre vai chegar
C9/E              F   G    Am7
Eu vou crer, não vou duvidar
        C/E      F    G       Am7
O preço que foi pago ali na cruz
   G/B  F/A        G/B
Me dá vitória nesta hora
       F/C          Gsus
Me dá vitória nesta hora
        Am7        G/B
Me dá vitória nesta hora
        F/C        Gsus
Me dá vitória nesta hora
      F/A          G/B
Me dá vitória nesta hora
        F/C        Gsus
Me dá vitória nesta hora
        Am7         G/B
Me dá vitória nesta hora
        Bb9    Eb9    C9
Me dá vitória

Riff 2x:

E|----------------------|
B|-6-5-6--6-8-----------|
G|-5-5-5--5-7-----------|
D|-3-2-3--3/5-----------|
A|----------------------|
E|----------------------|

Comentarios 6

  • Charlles Charlles: Publicado en 30/01/2014 12:57

    baixei essa musica e irei ensaia pra eu cantat na minha igreja... so voz e piano

  • morielzinho morielzinho: Publicado en 13/04/2012 13:39

    o solo naum é tão dificil mas uma video aula seria uma boa

  • xitra xitra: Publicado en 05/10/2011 16:24

    facil.consegui aprender a taca-lá.

  • weslley weslley: Publicado en 04/06/2011 11:53

    esta cifra ta melhor q a outra

  • Vock's Vock's: Publicado en 10/02/2011 20:39

    Facil, gostei muito dos solos e dos riffs.

    • Samuel Samuel: Publicado en 01/08/2013 13:04

      muito legal,mai um pouco dificil

Composición: André Valadão
Ese no és el compositor? Avisenos.
Contribución: juninho Correcciónes: Júnior , keket e mais 2 »
Exhibir acordes »
publicidad
cerrar