Garoto de Aluguel

Zé Ramalho

 Zé Ramalho
Tono: C
		
(intro) Am Em Dm E

Am                                      Em
Baby, dê-me seu dinheiro que eu quero viver
                                 Dm
Dê-me seu relógio que eu quero saber
                                 E
Quanto tempo falta para lhe esquecer
                                 Am
Quanto vale um homem para amar você
Am                          Em
Minha profissão e suja e vulgar
                              Dm
Quero um pagamento para me deitar
                               E
Junto com você estrangular meu riso
                              Am   ( Em Am )
Dê-me seu amor que dele não preciso

Am                             Em
Baby, nossa relação acaba-se assim
                                 Dm
Como um caramelo que chegasse ao fim
                              E
Na boca vermelha de uma dama louca
                                Am
Pague meu dinheiro e vista sua roupa
Am                                 Em
Deixe a porta aberta quando for saindo
                                Dm
Você vai chorando e eu fico sorrindo
                               E
Conte pras amigas que tudo foi mal
                          Am
Nada me preocupa de um marginal

(solo)  Am Em D7 E


E |--12--10-9--12--10-9----12--10-9---12--10-9-12
B |----------------------------------------------
G |----------------------------------------------
D |----------------------------------------------
A |----------------------------------------------
E |----------------------------------------------



E |--12--10-9--12--10-9----12--10-9---12--10-9-12
B |----------------------------------------------
G |----------------------------------------------
D |----------------------------------------------
A |----------------------------------------------
E |----------------------------------------------



E |-10-9-7-10-9-7--10-9-7--10-9-7-10-----
B |--------------------------------------
G |--------------------------------------
D |--------------------------------------
A |--------------------------------------
E |--------------------------------------



E |-10-9-7-10-9-7--10-9-7--10-9-7-10-----
B |--------------------------------------
G |--------------------------------------
D |--------------------------------------
A |--------------------------------------
E |--------------------------------------



E |---9--7---9--7-----7--9-7-9-7---------
B |---------------10-------------10------
G |--------------------------------------
D |--------------------------------------
A |--------------------------------------
E |--------------------------------------



E |---9--7---9--7-----7--9-7-9-7---------
B |---------------10-------------10------
G |--------------------------------------
D |--------------------------------------
A |--------------------------------------
E |--------------------------------------



E |-----7-5-7-5-4-5-7-5-7-5-4------------
B |--------------------------------------
G |--------------------------------------
D |--------------------------------------
A |--------------------------------------
E |--------------------------------------



E |-2-1-4-2-5-4--7-5-9-7-10-9-12-10-9-7-9
B |--------------------------------------
G |--------------------------------------
D |--------------------------------------
A |--------------------------------------
E |--------------------------------------
Texto Columnas
Alterar tom ½ tono ½ tono
sintonización acordes esconder tabs más »

Comentarios 15

  • leonardo leonardo: Publicado en 30/04/2013 17:34

    faz video aula dessa musica pra aprender o ritmo

  • Samuel Samuel: Publicado en 26/03/2013 21:47

    consegui tirei o ritmo de ouvido

    • kikamily kikamily: Publicado en 17/07/2013 18:20

      kkkkkkkkkkkkkkkkkkkkkkkkkkkk,sério?
      essa música é cheia de floreios,mas como o cifra club é direcionado pra iniciantes tiraram toda a emoção

    • kikamily kikamily: Publicado en 17/07/2013 18:23

      a música é muito bonita,mas ninguém merece tocar uma música de 4 notas,pq fica uma coisa muito repetitiva,explorem mais o campo harmonico!

  • paulapoly paulapoly: Publicado en 20/06/2012 11:02

    muito massa essa música. pena que não sei se estou fazendo o ritmo certo...

  • memetico memetico: Publicado en 16/02/2012 17:32

    Muito boa essa música.

  • dpampis dpampis: Publicado en 14/11/2011 23:38

    preciso do ritmo adequado para esta música...será que alguém sabe me mensionar.????..aguardo....e agradeço

    • luizhenr luizhenr: Publicado en 28/09/2012 00:30

      Comentário removido

    • luizhenr luizhenr: Publicado en 28/09/2012 00:31

      2 vezes em cada acorde **

    • luizhenr luizhenr: Publicado en 28/09/2012 00:32

      B BCCB BCBC (Baixo/Cima)

Exhibiendo 10 de 15 comentarios Mostrar más ver todo »
Composición: Zé Ramalho
Ese no és el compositor? Avisenos.
Contribución: V.inny Correcciónes: jerson , George Euzébio e mais 3 »
  1. Sweet Child O' Mine - Guns N' Roses mantiene 2.760 exhibiciones
  2. Wonderwall - Oasis mantiene 2.042 exhibiciones
  3. When I Was Your Man - Bruno Mars mantiene 1.600 exhibiciones
  4. Nothing Else Matters - Metallica mantiene 1.575 exhibiciones
  5. Stairway To Heaven - Led Zeppelin mantiene 1.535 exhibiciones
  6. All Of Me - John Legend mantiene 1.484 exhibiciones
  7. Hey Jude - The Beatles mantiene 1.431 exhibiciones
  8. More Than Words - Extreme mantiene 1.421 exhibiciones
  9. The Scientist - Coldplay mantiene 1.287 exhibiciones
  10. Wake Me Up - Avicii mantiene 1.117 exhibiciones
  1. The Beatles- mantiene 21.322 exhibiciones
  2. Guns N' Roses- mantiene 6.945 exhibiciones
  3. Metallica- mantiene 6.764 exhibiciones
  4. Coldplay- mantiene 5.030 exhibiciones
  5. Nirvana- mantiene 4.959 exhibiciones
  6. Red Hot Chili Peppers- mantiene 4.917 exhibiciones
  7. One Direction- mantiene 4.857 exhibiciones
  8. Bruno Mars- mantiene 4.689 exhibiciones
  9. Oasis- mantiene 4.478 exhibiciones
  10. Green Day- mantiene 3.573 exhibiciones
Exhibir acordes »

Acordes y tabs

Aprenda

Studio Sol

©1996 - 2014 Cifra Club · el primero, mayor y más accedido del Brasil · 335 mil músicas · 6.2 millones de personas registradas

publicidad
cerrar