Celebrai

Trazendo a Arca

 Trazendo a Arca Compositor: Luiz Arcanjo
Tono: G
		
Intro: A5 A5 C5 C5 D5 E5 E5 A5 A5 C5 C5 F5 G5 G5  (2x)
        A9 C9 D9 Em Em A9 C9 F G G (2x)

A5 A5 C5 C5       D5     G5 G5
Hoje a festa é na casa do rei
A5 A5 C5 C5        D5   G5 G5
Toda terra celebra ao rei
A5 A5 C5 C5     D5     G5 G5
Tributai-o com todo o teu ser
A5 A5 C5 C5    D5      G5 G5
Toda honra rendemos ao rei
F                G             Am (A C A E - paletar nota por corda)
A sepultura não pode à deus louvar
F                G
Todo ser que tem fôlego
D
Louve ao senhor

A9    C9    F            D5 C5
Celebrai, com toda a sua força
A9    C9    F              C5 G5
Celebrai, com danças e com pulos
A9    C9       F       G5    F5 D5
Celebrai, pois a alegria do senhor
G E G   E G   A - paletar nota por corda)
É a nossa força

Interlúdio
A5 A5 C5 C5 D5 E5 E5 A5 A5 C5 C5 F5 G5 G5
A9 C9 D9 Em Em A9 C9 F G G

... Repete estrofe e refrão


E|-----------|-----------|-------|-----------|-----------|-------|  |---------|
B|-----------|-----------|-------|-----------|-----------|-------|  |--8------|
G|-----------|-----------|-------|-----------|-----------|-------|  |--7------|
D|-----------|-----------|-------|-----------|-----------|-------|  |--5------|
A|-----------|-----------|-3-5---|-----------|-----------|-3-5---|  |---------|
E|-3h5-5-5-5-|-3h5-5-5-5-|-------|-3h5-5-5-5-|-3h5-5-5-5-|-------|4x|---------|



E|-----------|-----------|-------|-----------|-----------|-------|  |---------|
B|-----------|-----------|-------|-----------|-----------|-------|  |--8------|
G|-----------|-----------|-5-7---|-----------|-----------|-5-7---|  |--7------|
D|-5h7-7-7-7-|-5h7-7-7-7-|-------|-5h7-7-7-7-|-5h7-7-7-7-|-------|  |--5------|
A|-----------|-----------|-------|-----------|-----------|-------|  |---------|
E|-----------|-----------|-------|-----------|-----------|-------|4x|---------|

(tocar tablatura com o ultimo refrão)
Celebrai, batendo palmas Celebrai, gritai bem alto
                              F
Celebrai, tirando os pés do chão

(Canta Refrão ... Celebrai, Com toda a sua força)
44 exhibiciónes

Comentarios 0

Composición: Ronald Fonseca e Luiz Arcanjo
Ese no és el compositor? Avisenos.
Contribución: neywillian
Exhibir acordes »
publicidad
cerrar