Esse Adorador

Shirley Carvalhaes

 Shirley Carvalhaes
Tono: A#
Sintonización: D G C F A D
		
Intro.: (Gm Eb Bb F) 2x


E|---------------------------------------|8-10-8---------8-----------------------------------|
B|-8-10/11-10-11--8-10/11-10-11--8-10/11-|------11-10-11-------------------------------------|
G|---------------------------------------|---------------------------------------------------|
D|---------------------------------------|---------------------------------------------------|
A|---------------------------------------|---------------------------------------------------|
E|---------------------------------------|---------------------------------------------------|



E|---------------------------------------|8-10-8---------8-----------------------------------|
B|-8-10/11-10-11--8-10/11-10-11--8-10/11-|------11-10-11---11-10-8---------------------------|
G|---------------------------------------|-------------------------10-7~---------------------|
D|---------------------------------------|---------------------------------------------------|
A|---------------------------------------|---------------------------------------------------|
E|---------------------------------------|---------------------------------------------------|



 Bb     Gm             Bb
Como Davi eu quero adorar
              Gm               Eb
Diante da morte não vou me prostrar
         Cm             Eb
Ele adorou naquela situação
                       F4 F Gm
Depois que o filho morreu
                     Dm                Eb
Será que pode ser assim nos dias de hoje?
              Cm
Mesmo na decepção
      F             Gm
Deus achar um adorador
            Eb                  Bb
É muito difícil na provação louvar
                                 F  Gm
Abre mão da própria dor e o adorar.
                                Eb
Esse Adorador  já amanhece adorando
                                 Bb
Esse Adorador  já tem milagre esperando
                                   F                       Gm
Esse Adorador  já quando abre sua boca  faz inferno estremecer!
                                     Eb
Este Adorador  não tem momento e nem hora
                                   Bb
A qualquer momento ele se ergue agora
                         F
Porque sabe que sua adoração
               Gm
Move a mão de Deus.



E|---------------------------------------|8-10-8---------8-----------------------------------|
B|-8-10/11-10-11--8-10/11-10-11--8-10/11-|------11-10-11-------------------------------------|
G|---------------------------------------|---------------------------------------------------|
D|---------------------------------------|---------------------------------------------------|
A|---------------------------------------|---------------------------------------------------|
E|---------------------------------------|---------------------------------------------------|



E|---------------------------------------|8-10-8---------8-----------------------------------|
B|-8-10/11-10-11--8-10/11-10-11--8-10/11-|------11-10-11---11-10-8---------------------------|
G|---------------------------------------|-------------------------10-7~---------------------|
D|---------------------------------------|---------------------------------------------------|
A|---------------------------------------|---------------------------------------------------|
E|---------------------------------------|---------------------------------------------------|



Solo:  Gm Eb Bb F Bb


Bb        Gm                  Bb
Ele entrou no templo para adorar
             Gm              Eb
Deixou seu luto  deixou seu lar
      Cm                       Eb
Queria saber o pensamento de Davi
                       F4 F Gm
No momento dessa adoração
                           Dm          Eb
O coração de Deus se derreteu ao ver Davi
            Cm         F        Gm
Romper seu luto foi o que escolheu
            Eb                  Bb
Davi se prostrou rasgou seu coração
                                          F  Gm
Deus curou a sua dor através da sua adoração.

                                Eb
Esse Adorador  já amanhece adorando
                                 Bb
Esse Adorador  já tem milagre esperando
                                   F                       Gm
Esse Adorador  já quando abre sua boca  faz inferno estremecer!
                                     Eb
Este Adorador  não tem momento e nem hora
                                   Bb
A qualquer momento ele se ergue agora
                         F
Porque sabe que sua adoração
               Gm     Eb  Bb F                  Gm   Eb  Bb
Move a mão de Deus          (Move a mão de Deus)


F          Gm             Eb             Bb                 F
Adore, adore, adore, adore, adore, adore, adore, adore, adore
                   Gm
Não importa a situação
           Eb            Bb                   F
Adore, adore, adore, adore, adore, adore, adore

Não importa a situação
           Eb            Bb                   F
Adore, adore, adore, adore, adore, adore, adore
             Gm
Adore meu irmão
           Eb            Bb                   F                     Gm
Adore, adore, adore, adore, adore, adore, adore não importa a situação

                                Eb
Esse Adorador  já amanhece adorando
                                 Bb
Esse Adorador  já tem milagre esperando
                                   F                       Gm
Esse Adorador  já quando abre sua boca  faz inferno estremecer!
                                     Eb
Este Adorador  não tem momento e nem hora
                                   Bb
A qualquer momento ele se ergue agora
                         F                  Gm
Porque sabe que sua adoração move a mão de Deus


E|---------------------------------------|8-10-8---------8-----------------------------------|
B|-8-10/11-10-11--8-10/11-10-11--8-10/11-|------11-10-11-------------------------------------|
G|---------------------------------------|---------------------------------------------------|
D|---------------------------------------|---------------------------------------------------|
A|---------------------------------------|---------------------------------------------------|
E|---------------------------------------|---------------------------------------------------|

                                          Bb                                F       Gm
                                          move a mão de Deus, Move a mão de Deus, Adore

E|---------------------------------------|8-10-8---------8-----------------------------------|
B|-8-10/11-10-11--8-10/11-10-11--8-10/11-|------11-10-11---11-10-8---------------------------|
G|---------------------------------------|-------------------------10-7~---------------------|
D|---------------------------------------|---------------------------------------------------|
A|---------------------------------------|---------------------------------------------------|
E|---------------------------------------|---------------------------------------------------|
149 exhibiciónes

Comentarios 0

Composición: Rozeane Ribeiro
Ese no és el compositor? Avisenos.
Contribución: velsinho Correcciónes: cristina , Leandro e mais 5 »
Exhibir acordes »
publicidad
cerrar