Antes de Las Seis

Shakira

 Shakira Compositor: Shakira / L. Méndez
Tono: C
		
Intro:

E|----------0-3-5-3-5-3-5-3-3-0-3--------------------------
B|-----1-3------------------------5-3-5-3-1-3--------------
G|---2-----------------------------------------2-----------
D|--3------------------------------------------------------
A|---------------------------------------------------------
E|---------------------------------------------------------



E|----------0-3-5-8-5-5-3-5-3-0-3--------------------------
B|-----1-3------------------------5-3-5-3------------------
G|---2-----------------------------------------------------
D|---------------------------------------------------------
A|---------------------------------------------------------
E|---------------------------------------------------------


C                 Am
No actúes tan extraño
Em              F
Duro como una roca
C               Am
Si te mostré pedazos de piel
       Em                  F
Que la luz del sol aun no toca

C        Am
Y tantos lunares
Em                    F
Que ni yo misma conocía
C             Am
Te mostré mi fuerza bruta
Em                           F
Mi talón de Aquiles, mi poesía.

Am    G   C
¿Qué harás?
         F    C    G
Sólo una historia más
F   G   Am
¿Qué haré
           F   C    G
Si no te vuelvo a ver?

Oh, oh

RITMO: BAIXO, BAIXO, CIMA, CIMA, BAIXO, CIMA...
F            C               Am
Si desde el día en que no estás
             G
Vi la noche llegar mucho antes de las seis
F            C               Am
Si desde el día en que no estás
             G                          F
Vi la noche llegar mucho antes de las seis
Mucho antes

C       Am
No dejes el barco
Em                   F
Tanto antes de que zarpemos
C             Am
Hacia alguna isla desierta
         Em            F
Y después, después veremos

C            Am
Si me ves desarmada
Em                   F
Por qué lanzas tus misiles?
C                    Am
Si ya conoces mis puntos cardinales
    Em                 F
Los más sensibles y sutiles

Am    G   C
¿Qué harás?
         F  C   G
La vida lo dirá
Am   G   C
¿Qué haré
         F       C   G
Si no te vuelvo a ver?

Oh, oh

F            C               Am
Si desde el día en que no estás
             G
Vi la noche llegar mucho antes de las seis
F            C               Am
Si desde el día en que no estás
             G                             F
Vi la noche llegar mucho antes de las seis

C    Am
Ah, ah
Em
Ah

( F  C  Am  Em )   (2x)


E|----------0-3-5-3-5-3-5-3-3-0-3--------------------------
B|-----1-3------------------------5-3-5-3-1-3--------------
G|---2-----------------------------------------2-----------
D|--3------------------------------------------------------
A|---------------------------------------------------------
E|---------------------------------------------------------



E|----------0-3-5-8-5-5-3-5-3-0-3--------------------------
B|-----1-3------------------------5-3-5-3------------------
G|---2-----------------------------------------------------
D|---------------------------------------------------------
A|---------------------------------------------------------
E|---------------------------------------------------------

                    F
Mucho antes de las seis
          C
Mucho antes
3.111 exhibiciónes

Comentarios 3

Composición: A. Mayo / Eloy Giralt / Juci Pita / Lester Mendez / R Larow / Shakira
Ese no és el compositor? Avisenos.
Contribución: Valery Correcciónes: eduardoblbx e mais 2 »
Exhibir acordes »
publicidad
cerrar