Come Wake Me Up

Rascal Flatts

 Rascal Flatts Compositor: Rascal Flatts
Tono: E(acordes na forma do tom C)
Cejilla en la 4ª casa		
Introdução:
C C Am Am


  C                  C             Am                 Am
E|--------3---------------3-------|--------3---------------3-------|
B|------1------1--------1------1--|------1------1--------1------1--|
G|----0------0--------0------0----|----2---------------2------0----|
D|--------------------------------|-----------2--------------------|
A|--3---------------3-------------|--0---------------0-------------|
E|--------------------------------|--------------------------------|



Parte 1:
C              C                      Am
I can usually drink you right off my mind
                  Am
But I miss you tonight
C              C                        Am
I can normally push you right out of my heart
                     Am    G
But I'm too tired to fight



Pré Refrão:

  F                    G                   Em                   Am         G
E|-----------3--------|-----------3-------|-----------3--------|----------|----------|
B|-----------------1--|--------0-------0--|-----------------0--|-------1--|-------0--|
G|--------2-----------|-----0-------0-----|--------0-----0-----|----------|-----0----|   (2X)
D|-----3--------3-----|-------------------|-----2--------------|-----2----|----------|
A|--------------------|-------------------|--------------------|--0-------|----------|
E|--1-----------------|--3----------------|--0-----------------|----------|--3-------|



F                       G
Yeah the whole thing begins
                   Em                 Am         G
And I let you sink in to my veins and I feel the pain like it's new
F                    G                      Em
Everything that we were everything that you said
                  Am           G            F
Everything that I did and that I couldn't do
   F   G      C
Plays through tonight


Refrão:
F
Tonight your memory burns like a fire
C                       Am         G
With every one it grows higher and higher
F
And I can't get over it
                          C     Am    G
I just can't put out this love
       F
I just sit in these flames and pray that you'll come back
C                     Am          G         F
Close my eyes tightly hold on and hope that I'm dreaming
     G       C
Come wake me up


Parte 2:
C              C                           Am               Am
Turn the TV up loud just to drown out your voice but I can't forget
C                    C                Am                  Am     G
Now I'm all out of ideas and baby I'm down to my last cigarette



Pré Refrão:
F                      G
Yeah you're probably asleep deep inside of your
Em                            Am         G
Dreams while I'm sitting here crying and trying to see
F                 G                 Em
Yeah wherever you are baby now I am sure that you've moved
   Am                 G           F       G      C
On and aren't thinking twice about me and you tonight



Refrão:
F
Tonight your memory burns like a fire
C                       Am         G
With every one it grows higher and higher
F
And I can't get over it
                          C     Am    G
I just can't put out this love
       F
I just sit in these flames and pray that you'll come back
C                     Am          G         F        G
Close my eyes tightly hold on and hope that I'm dreaming


                F
I know that you're moving on
                F
I know I should give you up
           C                               Am          G
But I keep hoping that you'll trip and fall back in love
                  F
Times not healing anything
             F                  G
No baby this pain is worse than it ever was



 C                  C             Am                 Am
E|--------3---------------3-------|--------3---------0-------------|
B|------1------1--------1------1--|------1------1----1-------------|
G|----0------0--------0------0----|----2-------------2-------------|
D|--------------------------------|-----------2------2-------------|
A|--3---------------3-------------|--0---------------0-------------|
E|--------------------------------|--------------------------------|

C                     C                 Am                     Am
I know that you can't hear me but baby I need you to save me tonight



Refrão:
F
Tonight your memory burns like a fire
C                       Am         G
With every one it grows higher and higher
F
And I can't get over it
                          C     Am    G
I just can't put out this love
       F
I just sit in these flames and pray that you'll come back
C                     Am          G         F        G
Close my eyes tightly hold on and hope that I'm dreaming
 G       C
Come wake me up
       F              G      C
Oh I'm dreaming, Come wake me up


 C                  C              C                  C
E|--------3---------------3-------|--------3---------------3-------|
B|------1------1--------1------1--|------1------1--------1------1--|
G|----0------0--------0------0----|----0------0--------0------0----|
D|--------------------------------|--------------------------------|
A|--3---------------3-------------|--3---------------3-------------|
E|--------------------------------|--------------------------------|



  Am                 Am
E|--------3---------0-------------|
B|------1------1----1-------------|
G|----2-------------2-------------|
D|-----------2------2-------------|
A|--0---------------0-------------|
E|--------------------------------|
62 exhibiciónes

Comentarios 1

  • Alana Alana: Publicado en 01/08/2014 22:42

    muito melhor na versao da banda malta

Composición: Chris Tait / Francone Mussida / J Hawkins / Nikki Leonti / Ricardo Barros
Ese no és el compositor? Avisenos.
Contribución: rayanmateus
Exhibir acordes »
publicidad
cerrar