Street Spirit (Fade Out)

Radiohead

 Radiohead
Tono: D
		
(intro)

E|----------0---------------0---------------0-----------------------|
B|------------------3---------------1---------------0---------------|
G|------2-------2-------2-------2-------2-------2-------2-------2---|
D|----------------------------------------------------------2-------|  (4x)
A|--0---------------------------------------------------------------|
E|------------------------------------------------------------------|


(verso)

E|----------0---------------0---------------0-----------------------|
B|------------------3---------------1---------------0---------------|
G|------2-------2-------2-------2-------2-------2-------2-------2---|
D|----------------------------------------------------------2-------|  (4x)
A|--0---------------------------------------------------------------|
E|------------------------------------------------------------------|


                                                           (1ª vez)      (2ª vez)

E|----------0---------------0---------------0----------|-------------|-------------|
B|------------------3---------------1---------------0--|-------------|-------------|
G|-----------------------------------------------------|-------------|-2-------2---|
D|------2-------2-------2-------2-------2-------2------|-2-------2---|-----2-------|  (2x)
A|-----------------------------------------------------|-----2-------|-------------|
E|--0--------------------------------------------------|-------------|-------------|



E|----------0---------------0---------------0-----------------------|
B|------------------3---------------1---------------0---------------|
G|------2-------2-------2-------2-------2-------2-------2-------2---|
D|----------------------------------------------------------2-------| (2x)
A|--0---------------------------------------------------------------|
E|------------------------------------------------------------------|


(refrão / pós-refrão)

E|----------0---------------0---------------0-----------------------|
B|------------------3---------------1---------------0---------------|
G|------0-------0-------0-------0-------0-------0-------0-------0---|
D|----------------------------------------------------------2-------|
A|--3---------------------------------------------------------------|
E|------------------------------------------------------------------|



E|----------0---------------0---------------0-----------------------|
B|------------------3---------------1---------------0---------------|
G|------------------------------------------------------0-------0---|
D|------2-------2-------2-------2-------2-------2-----------2-------|
A|---2--------------------------------------------------------------|
E|------------------------------------------------------------------|



E|----------0---------------0---------------0-----------------------|
B|------------------3---------------1---------------0---------------|
G|------2-------2-------2-------2-------2-------2-------2-------2---|
D|----------------------------------------------------------2-------|  (2x)
A|--0---------------------------------------------------------------|
E|------------------------------------------------------------------|



E|----------0---------------0---------------0-----------------------|
B|------------------3---------------1---------------0---------------|
G|------0-------0-------0-------0-------0-------0-------0-------0---|
D|----------------------------------------------------------2-------|
A|--3---------------------------------------------------------------|
E|------------------------------------------------------------------|



E|----------0---------------0---------------0-----------------------|
B|------------------3---------------1---------------0---------------|
G|------------------------------------------------------0-------0---|
D|------2-------2-------2-------2-------2-------2-----------2-------|
A|---2--------------------------------------------------------------|
E|------------------------------------------------------------------|


(final)

E|----------0---------------0---------------0-----------------------|
B|------------------3---------------1---------------0---------------|
G|------0-------0-------0-------0-------0-------0-------0-------0---|
D|----------------------------------------------------------2-------|
A|--3---------------------------------------------------------------|
E|------------------------------------------------------------------|



E|----------0---------------0---------------0-----------------------|
B|------------------3---------------1---------------0---------------|
G|------------------------------------------------------0-------0---|
D|------2-------2-------2-------2-------2-------2-----------2-------|
A|------------------------------------------------------------------|
E|--0---------------------------------------------------------------|



E|----------0---------------0---------------0-----------------------|
B|------------------3---------------1---------------0---------------|
G|------2-------2-------2-------2-------2-------2-------2-------2---|
D|----------------------------------------------------------2-------|  (2x)
A|--0---------------------------------------------------------------|
E|------------------------------------------------------------------|



E|----------0---------------0---------------0-----------------------|
B|------------------3---------------1---------------0---------------|
G|------0-------0-------0-------0-------0-------0-------0-------0---|
D|----------------------------------------------------------2-------|
A|------------------------------------------------------------------|
E|--3---------------------------------------------------------------|



E|----------0---------------0---------------0-----------------------|
B|------------------3---------------1---------------0---------------|
G|------------------------------------------------------0-------0---|
D|------2-------2-------2-------2-------2-------2-----------2-------|
A|------------------------------------------------------------------|
E|--0---------------------------------------------------------------|



E|----------0---------------0---------------0-----------------------|-----|
B|------------------3---------------1---------------0---------------|-----|
G|------2-------2-------2-------2-------2-------2-------2-------2---|-----|
D|----------------------------------------------------------2-------|-----|
A|--0---------------------------------------------------------------|-0~--|
E|------------------------------------------------------------------|-----|

Comentarios 0

Composición: Andrew Cousin / Colin Greenwood / Joe Robinson / Jonny Greenwood / K. DiGuardi / Marti Frederiksen / Phil Selway / Thom Yorke
Ese no és el compositor? Avisenos.
Contribución: Vinicius
Exhibir acordes »
publicidad
cerrar