Aos Pés da Cruz

Oficina G3

 Oficina G3
Tono: D
		
Intro harmônicos: (3x)

      HNHNHNHNHNHNHNHNHN HN HN HN HN HN HN HN

E|--------------------12-12-12-12-12-12-12-12----|
B|-----------------------------------------------|
G|-----------------------------------------------|
D|----7-7-7-7-7-7-7-7----------------------------|
A|-----------------------------------------------|
E|-----------------------------------------------|



Intro (2x): A9 A F#m7 F#m Em riff 1

riff 1


G|-6/7---7/6--6/9--7/6--4-4-2-4/6--2~~|
D|------------------------------------|
A|-4/5---5/4--4/7--5/4--2-2-0-2/4--0~~|
E|------------------------------------|


riff2

G|---------------------|
D|---------------------|
A|4-5-4-5-4-7--5-4-5-2~|
E|---------------------|



Base primeiras quatro frases com Harmônicos: (Cada frase cantada faz o riff uma vez)

    HNHNHNHNHNHNHNHNHN HN HN HN HN HN HN HN

E|------------------12-12-12-12-12-12-12-12---|
B|--------------------------------------------|
G|--------------------------------------------|  (2X)
D|--------------------------------------------|
A|--7-7-7-7-7-7-7-7---------------------------|
E|--------------------------------------------|


    HNHNHNHNHNHNHNHNHN HN HN HN HN HN HN HN

E|------------------12-12-12-12-12-12-12-12---|
B|--------------------------------------------|
G|--------------------------------------------|
D|--------------------------------------------|
A|--5-5-5-5-5-5-5-5---------------------------|
E|--------------------------------------------|


    HNHNHNHNHNHNHNHNHN HN HN HN HN HN HN HN

E|------------------12-12-12-12-12-12-12-12---|
B|--------------------------------------------|
G|--------------------------------------------|
D|--------------------------------------------|
A|--7-7-7-7-7-7-7-7---------------------------|
E|--------------------------------------------|


A9                   A
Meu Jesus maravilhoso és
F#m                    F#m7
Minha inspiração a prosseguir
        G
E mesmo quando tudo não vai bem
D9
Eu continuo olhando para Ti.

Aqui a guitarra entra tocando as notas nos bordões e abafando

A9                               A
Pois sei que Tu tens o melhor pra mim
                      F#m
Há um segredo no Teu coração
      Em
Oh! Dá-me forças pra continuar                < Nessa frase vai desfazendo o abafado aos poucos.
       Bm                 D     riff 2
Guardando a promessa em oração.

A9	                       A9/C#
Firme  oh! Deus está o meu coração
                           G
Firme nas promessas do Senhor
                          D9
Eu continuo olhando para Ti
                                 A9
E assim eu sei que posso prosseguir

                      Em
E mesmo quando eu chorar
                   A   Bm7
As minhas lágrimas serão
       A9           G
Para regar a minha fé
               Bm   A9
E consolar meu coração
                             Em
Pois o que chora aos pés da cruz
                      A  Bm7
Clamando em nome de Jesus
            A9     G
Alcançará de Ti Senhor
              	       A9
Misericórdia  Graça e luz

(Intro)
(Faz a base com harmônicos nas primeiras quatro frases cantadas novamente)

A9
Teu grande amor não cessa
                F#m7
Eterno não tem fim
          Em
Quão grande és Tu Senhor
  G
Quão grande és pra mim
A9
Tua graça é o meu refúgio
F#m
Descanso no Teu poder
Em
Maravilhoso és
G                   G9
Maravilhoso és pra mim

A9	                        A9/C#
Firme  oh! Deus está o meu coração
                           G
Firme nas promessas do Senhor
                          D9
Eu continuo olhando para Ti
                                 A9
E assim eu sei que posso prosseguir

                      Em
E mesmo quando eu chorar
                     A   Bm7
As minhas lágrimas serão
             A9     G
Para regar a minha fé
               B    A9
E consolar meu coração
                             Em
Pois o que chora aos pés da cruz
                      A  Bm7
Clamando em nome de Jesus
            A9     G
Alcançará de Ti Senhor
              	       A9
Misericórdia  Graça e luz

Base Solo (3x):


E|--------------------------------------------------------|
B|--------------------------------------------------------|
G|-----------------------------9-9-9-9-9-9-9-9-9-9-9-9----|
D|----7-7-7-7-7-7-7-7-7-7-7-7--9-9-9-9-9-9-9-9-9-9-9-9----|
A|----7-7-7-7-7-7-7-7-7-7-7-7--7-7-7-7-7-7-7-7-7-7-7-7----|
E|----5-5-5-5-5-5-5-5-5-5-5-5-----------------------------|



E|-------------------------------------------|
B|-------------------------------------------|
G|---------------------7-7--7-7---6-7-9------|
D|----5-4-------4-5----7-7--7-7---6-7-9-7----|
A|--------7-5-7---5----5-5--5-5---4-5-7-7----|
E|----------------3---------------------5----|


(Solo:)


E|---------------------------------------------------|
B|----15b(17)r15-14----------------------------------|
G|-------------------14-14b(16)r14b-14--12-11-9-7----|
D|---------------------------------------------------|
A|---------------------------------------------------|
E|---------------------------------------------------|



E|--------------------------------------------------------------------|
B|----14b(15)r14-12----12-14-10b(12)~~-10-----------------------------|
G|------------------14--------------------12-11-12-11-----------------|
D|----------------------------------------------------12-14b-12x12----|
A|--------------------------------------------------------------------|
E|--------------------------------------------------------------------|



E|--------------------------------------17----|
B|----------------------15x15--15h16h18-------|
G|-------------14-16-18-----------------------|
D|----14-16-17--------------------------------|
A|--------------------------------------------|
E|--------------------------------------------|



E|----15b(17)-15b(17)~~-14b----------19\17-------19-17----|
B|--------------------------17-15-17-------17-20----------|
G|--------------------------------------------------------|
D|--------------------------------------------------------|
A|--------------------------------------------------------|
E|--------------------------------------------------------|



E|----15h19p15--------------------------------------|
B|-------------19p15--------------------------------|
G|-------------------16----------16----------14~----|
D|----------------------17p16-------17p16-----------|
A|----------------------------17----------17--------|
E|--------------------------------------------------|



E|--------------------------------------------14----------10h14t19/17p14p10~---------------|
B|-----------------------------------------12----12----12----------------------------------|
G|----14-12-11-12-11b-------------------11----------11-----------------------------14~~----|
D|--------------------12-------------12--------------------------------------11/14---------|
A|-----------------------14~~---9h14-------------------------------------------------------|
E|-----------------------------------------------------------------------------------------|



A9	                        A9/C#
Firme  oh! Deus está o meu coração
                           Em
Firme nas promessas do Senhor
                          G
Eu continuo olhando para Ti
                               D     A9
E assim eu sei que posso prosseguir
                      Em
E mesmo quando eu chorar
                     A   Bm7
As minhas lágrimas serão
             A9     G
Para regar a minha fé
               B    A9
E consolar meu coração

                             Em7
Pois o que chora aos pés da cruz
                      A  Bm7
Clamando em nome de Jesus
            A9     G
Alcançará de Ti Senhor
              	       D A9
Misericórdia  Graça e luz

Fim (1x):

(Intro)
Texto Columnas
Alterar tom ½ tono ½ tono
sintonización acordes esconder tabs más »

Comentarios 41

  • Fenanda Fenanda: Publicado en 14/10/2014 18:42

    essa cifra está errada o Mauro tocar com o capotraste na 5 ou 4 casa.

  • raul raul: Publicado en 07/06/2014 14:04

    a cifra e a tablatura estão certas e só você tocar ouvindo a musica pra acertar os pequenos detalhes do solo.

  • anndryw.alberto anndryw.alberto: Publicado en 17/05/2014 12:35

    a tlabatura do solo ta errada

  • gabriel.limaluz.77 gabriel.limaluz.77: Publicado en 01/05/2014 15:44

    mo chato o cifra club paro de fazer aulas boas

  • mateus.marinho.902 mateus.marinho.902: Publicado en 30/04/2014 14:44

    video aula pfv!!

  • Alefe Alefe: Publicado en 24/04/2014 04:39

    O Cifra Club precisa dar mais valor ao rock gospel!!!

  • Guill N´ Roses Guill N´ Roses: Publicado en 26/02/2014 14:52

    essa tab de ponta cabeça complica tudo

  • igorborges.dossantos igorborges.dossantos: Publicado en 12/11/2013 11:21

    o solo é em "ré" mas o campo harmonico é de "lá", o solo é em "ré" pq a base do solo ten as mesmas notas do campo harmonico de "ré"

  • oseias.olimpio oseias.olimpio: Publicado en 28/10/2013 12:18

    só faltou a video aula

Exhibiendo 10 de 41 comentarios Mostrar más ver todo »
Composición: Kleber Lucas
Ese no és el compositor? Avisenos.
Contribución: LNPedrosa Correcciónes: juninho.ferreira.5667 , UrsooO e mais 14 »
  1. Sweet Child O' Mine - Guns N' Roses mantiene 3.132 exhibiciones
  2. Wonderwall - Oasis mantiene 2.337 exhibiciones
  3. All Of Me - John Legend mantiene 2.079 exhibiciones
  4. Nothing Else Matters - Metallica mantiene 1.818 exhibiciones
  5. Stairway To Heaven - Led Zeppelin mantiene 1.611 exhibiciones
  6. When I Was Your Man - Bruno Mars mantiene 1.581 exhibiciones
  7. More Than Words - Extreme mantiene 1.418 exhibiciones
  8. I'm Yours - Jason Mraz mantiene 1.405 exhibiciones
  9. The Scientist - Coldplay mantiene 1.387 exhibiciones
  10. Hey Jude - The Beatles mantiene 1.308 exhibiciones
  1. The Beatles- mantiene 22.347 exhibiciones
  2. Guns N' Roses- mantiene 7.730 exhibiciones
  3. Metallica- mantiene 7.209 exhibiciones
  4. Coldplay- mantiene 5.242 exhibiciones
  5. Nirvana- mantiene 5.063 exhibiciones
  6. One Direction- mantiene 5.031 exhibiciones
  7. Oasis- mantiene 5.014 exhibiciones
  8. Red Hot Chili Peppers- mantiene 5.001 exhibiciones
  9. Bruno Mars- mantiene 4.798 exhibiciones
  10. Ed Sheeran- mantiene 4.249 exhibiciones
Exhibir acordes »

Acordes y tabs

Aprenda

Studio Sol

©1996 - 2014 Cifra Club · el primero, mayor y más accedido del Brasil · 341 mil músicas · 6.3 millones de personas registradas

publicidad
cerrar