Oficina G3

Aos Pés da Cruz

611 reproducciones
Tono: D
Intro (2x): A9  A  F#m7  F#m  Em  D9

primeira parte:

E|-----------------12--12--12--12--12---|
B|--10-10-10-10-10---10--10--10--10--10-|
G|-9--9--9--9--9------------------------|  (4x)
D|--------------------------------------|
A|--------------------------------------|
E|--------------------------------------|

segunda parte: 

E|-------------------12-12-12-12-12-12-|
B|-10-10-10-10-10-10-------------------|   
G|-------------------------------------|    (2x) 
D|-------------------------------------| 
A|-------------------------------------| 
E|-------------------------------------|

E|--------------------------------------|
B|-9-9-9-9-9-9-10-10-10-10-10-10-9-7----|
G|----------------------------------9-7-|
D|--------------------------------------|
A|--------------------------------------|
E|--------------------------------------|

E|--------------------------------|
B|--------------------------------|
G|--------------------------------|
D|--------------------------------|
A|-4-5-4-5-4-7---4-5-4-5-4-2------|
E|--------------------------------|


A9                   A
Meu Jesus maravilhoso és
F#m                    F#m7
Minha inspiração a prosseguir
        G
E mesmo quando tudo não vai bem
D9
Eu continuo olhando para Ti.

Aqui a guitarra entra tocando as notas nos bordões e abafando

A9                               A
Pois sei que Tu tens o melhor pra mim
                      F#m
Há um segredo no Teu coração
      Em
Oh! Dá-me forças pra continuar               
       Bm                 D     riff 2
Guardando a promessa em oração.

A9	                       A9/C#
Firme  oh! Deus está o meu coração
                           G
Firme nas promessas do Senhor
                          D9
Eu continuo olhando para Ti
                                 A9
E assim eu sei que posso prosseguir

                      Em
E mesmo quando eu chorar
                   A   Bm7
As minhas lágrimas serão
       A9           G
Para regar a minha fé
               Bm   A9
E consolar meu coração
                             Em
Pois o que chora aos pés da cruz
                      A  Bm7
Clamando em nome de Jesus
            A9     G
Alcançará de Ti Senhor
              	       A9
Misericórdia  Graça e luz

(Intro)

A9
Teu grande amor não cessa
                F#m7
Eterno não tem fim
          Em
Quão grande és Tu Senhor
  G
Quão grande és pra mim
A9
Tua graça é o meu refúgio
F#m
Descanso no Teu poder
Em
Maravilhoso és
G                   G9
Maravilhoso és pra mim

A9	                        A9/C#
Firme  oh! Deus está o meu coração
                           G
Firme nas promessas do Senhor
                          D9
Eu continuo olhando para Ti
                                 A9
E assim eu sei que posso prosseguir

                      Em
E mesmo quando eu chorar
                     A   Bm7
As minhas lágrimas serão
             A9     G
Para regar a minha fé
               B    A9
E consolar meu coração
                             Em
Pois o que chora aos pés da cruz
                      A  Bm7
Clamando em nome de Jesus
            A9     G
Alcançará de Ti Senhor
              	       A9
Misericórdia  Graça e luz

Base Solo (3x):

(obs:se não fazer o da tablatura,faz as notas com pestana.)
                                        D9
   A9        E9       F#m            G  (C# D9 E9)
E|-----------------------------------------------|
B|-----------------------------------------------|
G|----------9999999---------------------66-77-99-|  (3x)
D|-7777777--9999999--5-4-------4-5--555-66-77-99-|
A|-7777777--7777777-------7-5-7-----555-44-55-77-|
E|-5555555--------------------------333----------|

A9	                        A9/C#
Firme  oh! Deus está o meu coração
                           Em
Firme nas promessas do Senhor
                          G
Eu continuo olhando para Ti
                               D     A9
E assim eu sei que posso prosseguir
                      Em
E mesmo quando eu chorar
                     A   Bm7
As minhas lágrimas serão
             A9     G
Para regar a minha fé
               B    A9
E consolar meu coração

                             Em7
Pois o que chora aos pés da cruz
                      A  Bm7
Clamando em nome de Jesus
            A9     G
Alcançará de Ti Senhor
              	       D A9
Misericórdia  Graça e luz

Fim (1x):

(Intro)
    Composición: Kleber LucasColaboración y revision:
    • enthony
    • d..g
    • juninho.ferreira.5667
    • Thiago
    • +10

    Comentarios 43

    140 .
    • Itheone Itheone: Em 26/02/2015 13:30

      faz a aula de guitarra completa

      • Alefe Alefe: Em 19/07/2015 06:55

        Seria uma boa

    • Fenanda Fenanda: Em 14/10/2014 18:42

      essa cifra está errada o Mauro tocar com o capotraste na 5 ou 4 casa.

    • raul raul: Em 07/06/2014 14:04

      a cifra e a tablatura estão certas e só você tocar ouvindo a musica pra acertar os pequenos detalhes do solo.

    • anndryw.alberto anndryw.alberto: Em 17/05/2014 12:35

      a tlabatura do solo ta errada

    • gabriel.limaluz.77 gabriel.limaluz.77: Em 01/05/2014 15:44

      mo chato o cifra club paro de fazer aulas boas

    • mateus.marinho.902 mateus.marinho.902: Em 30/04/2014 14:44

      video aula pfv!!

    • Alefe Alefe: Em 24/04/2014 04:39

      O Cifra Club precisa dar mais valor ao rock gospel!!!

    • Guill N´ Roses Guill N´ Roses: Em 26/02/2014 14:52

      essa tab de ponta cabeça complica tudo

    Exhibiendo 10 de 43 comentarios Mostrar más ver todo »
    140 cancelar

    ¿conseguiste tocar?

    • gilberto
    • ailtonzikapollo
    • Ygor
    • granj
    • Edinalva
    • Bruno
    • Pedro Manoel
    • •••
    Japa73.368 visualizações
      ver cover de otras canciones »
      0:00 / 0:00

      Capitulos

        3 versões de guitarra eléctrica dificuldad reproducciones contribuición y correción
        2 versões de contrabajo reproducciones contribuición y correción
        2 versões de Guitar Proformatodownloadscontribuición
        play/pausefechar subir/bajar velocidad
        6ª cuerda E5ª cuerda A4ª cuerda D3ª cuerda G2ª cuerda B1ª cuerda E
          acordes
          publicidad
          cerrar
          ok