O Carcará e a Rosa

Natiruts

 Natiruts
Tono: F
		
Bb	     C
Olhe, vá em frente, não se esqueça
Bb         C
Liberdade dentro da cabeça
Bb          C
E a cabeça fora do que há
   Dm           F#º
De mal pra você


                 Gm                     F
E|-3--3--55--3---3-5-3-5-3-5-3-|-1--1--3--1-|
A|----------------------------|-------------|
D|----------------------------|-------------|
G|----------------------------|-------------|     2x
B|----------------------------|-------------|
E|----------------------------|-------------|



       F    Gm                   F            Gm                   F
E|---1-3-1-3-1-3---5-3-1-3-1---1---|---1-3-1-3-1-3----5-3-1-3-1-1h3-3-|
A|-3-------------------------3-----|-3--------------------------------|
D|---------------------------------|----------------------------------|
G|---------------------------------|----------------------------------|
B|---------------------------------|----------------------------------|
E|---------------------------------|----------------------------------|


Gm7         Dm7
Ouvindo a música, sentindo o que ela 
    Cm7
me traz, uuuu...
Gm7             Dm7
Subo até as estrelas para entender 
               Cm7
como é que se faz, faz, faz
Gm7              Dm7
Para esquecer a dor que os meus olhos 
              Cm7
não conseguem ver
Gm7             Dm7
Destrua o meu coração que estará 
              Cm7
destruindo você, uuu..
Gm7            Dm7
Você é filho da terra, dadiva dada 
          Cm7
por seu Deus, uuu...
Gm7              Dm7
A fome dos meus filhos não será a 
             Cm7
riqueza dos seus, dos seus
Gm7           Dm7
Ô chama que destrói,  corrói o que é 
          Cm7
belo, tudo que faz bem
Gm7             Dm7
Controle suas palavras, minha 
                        Cm7
liberdade não pertence a ninguém
Dm7	C	Bb7M	        Am7	Gm7	C7(9)
Mas o amor pode chegar, ilumi....nar e colorir ...
Dm7		          Gm7
Quando um coração está cansado de ver, uuu...
Dm7	                       Gm7
As lágrimas da rosa ao ver o espinho morrer
Am7	             Gm7
Mas, o carcará foi dizer à rosa
Am7		             Gm7	        C#º
Que a luz dos cristais vem da lua nova e do girassol
Bb	     C
Olhe vá em frente não se esqueça
Bb	   C
Liberdade dentro da cabeça
Bb          C                Dm7
E a cabeça fora do que há de mal para você
Bb	     C
Olhe vá em frente não se esqueça
Bb	C
Liberdade dentro da cabeça
Bb          C                Dm7		F#º
E a cabeça fora do que há de malllllll 		Oh Oh


                  G                      F
E|-3--3--5--3---3-5-3-5-3-5-3-|-1--1--3--1-|
A|----------------------------|------------|
D|----------------------------|------------|  2x
G|----------------------------|------------|
B|----------------------------|------------|
E|----------------------------|------------|
1.055 exhibiciónes

Comentarios 0

Composición: Natiruts
Ese no és el compositor? Avisenos.
Contribución: Hoebert Correcciónes: everton8 , fiu e mais 5 »
Exhibir acordes »
publicidad
cerrar