My Chemical Romance

Disenchanted

3.790 reproducciones
Tono: D
Introdução (4x)

E|---------------------------------------------------------------------------|
B|----3-----3-----3----------------------------------------------------------|
G|-------2-----2-----2----0-------0-------0-------0----2----0----------------|
D|----0-----------------------4-------4-------4-----------------4------------|
A|---------------------------------------------------------------------------|
E|---------------------------------------------------------------------------|


                                                          D
E|-------------------------------------------------------2-------------------|
B|----3------3-----3-------------------------------------3-------------------|
G|-------2------2-----2---0------0-------0----0----------2-------------------|
D|---------------------------4------4------4------4-2-0--0-------------------|
A|----0----------------------------------------------------------------------|
E|---------------------------------------------------------------------------|


Verse
            D
Well I was there on the day

They sold the cause for the queen,
             Bm
And when the lights all went out

We watched our lives on the screen.
           G
I hate the ending myself,
                        A
But it started with an alright scene.

           D5
It was the roar of the crowd

That gave me heartache to sing.
         B5
It was a lie when they smiled

And said, "you won't feel a thing"
          G5
And as we ran from the cops
                            B5
We laughed so hard it would sting
     A5 - Bb5 (Passagem)
Yeah yeah, oh


Pre-Chorus

Bm              Em
If I'm so wrong (so wrong, so wrong)
            A                     D5- C5- B5 (Passagem)
How can you listen all night long? (night long, night long)
                    G
Now will it matter after I'm gone?
             A               Bm       C#5 - D5 - E5 (Passagem)
Because you never learn a goddamned thing.

Chorus

               D
You're just a sad song with nothing to say
         Bm
About a life long wait for a hospital stay
            Em
And if you think that I'm wrong,
                          A
This never meant nothing to ya

Verse
          D5
I spent my high school career

Spit on and shoved to agree
            B5
So I could watch all my heroes

Sell a car on tv
              G5
Bring out the old guillotine
                           A5
We'll show 'em what we all mean.
     A5 - Bb5 (Passagem)
Yeah yeah, oh

Pre Chorus

B5             E5
If I'm so wrong (so wrong, so wrong)
            A5                    D5- C5- B5 (Passagem)
How can you listen all night long? (night long, night long)
                    G5
Now will it matter after I'm gone?
             A5              Bm       C#5 - D5 - E5 (Passagem)
Because you never learn a goddamned thing.


Chorus

               D
You're just a sad song with nothing to say
         Bm
About a life long wait for a hospital stay
            Em
And if you think that I'm wrong,
                          A
This never meant nothing to ya

Solo

Guitarra 1


E|-|-17~-18-20-18-17~-18-20-18-20b22-20b22-17b19r17-17p15 15p14---------------|                                                     B-|------------------------------------------------------------15h17b19-17b19|                                                           G-|--------------------------------------------------------------------------|                                                            D-|--------------------------------------------------------------------------|                                                               A-|--------------------------------------------------------------------------|                                                                       E-|--------------------------------------------------------------------------|


E|-|--------------------------------------|
B|-|--17p15p14p12----------------------15-|
G|-|--------------14p12-------------14----|
D|-|--------------------14p12~---12-------|
A|-|--------------------------------------|
E|-|--------------------------------------|



Guitarra 2 base: (D5 - Bb5) (2x) D5- C5- B5 - G5 - A5

Verse

Bridge
   D5      Bb5       D5       Bb5
So go, go away, just go, run away.
                      D5       C5            B5
But where did you run to? And where did you hide?
   A5           G5             A5
Go find another way, price you pay

Obs.: Após o solo entra de novo o arpejo da introdução.


E|---------------------------------------------------------------------------|
B|----3-----3-----3----------------------------------------------------------|
G|-------2-----2-----2----0-------0-------0-------0----2----0----------------|
D|----0-----------------------4-------4-------4-----------------4------------|
A|---------------------------------------------------------------------------|
E|---------------------------------------------------------------------------|


                                                          D
E|-------------------------------------------------------2-------------------|
B|----3------3-----3-------------------------------------3-------------------|
G|-------2------2-----2---0------0-------0----0----------2-------------------|
D|---------------------------4------4------4------4-2-0--0-------------------|
A|----0----------------------------------------------------------------------|
E|---------------------------------------------------------------------------|



 D5    B5    G5    A5
Woah, Woah, Woah, Woah, Woah, Woah


Chorus

               D
You're just a sad song with nothing to say
         Bm
About a life long wait for a hospital stay
            Em
And if you think that I'm wrong,
                          A
This never meant nothing to ya
        D
Oh, at all

at all.


Obs.: Repete de novo o arpejo da introdução.


Fim (4x)

E|---------------------------------------------------------------------------|
B|----3-----3-----3----------------------------------------------------------|
G|-------2-----2-----2----0-------0-------0-------0----2----0----------------|
D|----0-----------------------4-------4-------4-----------------4------------|
A|---------------------------------------------------------------------------|
E|---------------------------------------------------------------------------|


                                                          D
E|-------------------------------------------------------2-------------------|
B|----3------3-----3-------------------------------------3-------------------|
G|-------2------2-----2---0------0-------0----0----------2-------------------|
D|---------------------------4------4------4------4-2-0--0-------------------|
A|----0----------------------------------------------------------------------|
E|---------------------------------------------------------------------------|
    Composición: My Chemical RomanceColaboración y revision:
    • Rafael
    • Made In Bahia
    • Marco

    Comentarios 0

    ¿conseguiste tocar?

    • Mariane
    • eric.gruby
    • Vitor
    • Isa
    • Héevyh
    • Tassany
    • isablack
    • •••

    covers

    ¡Grave un vídeo tocando Disenchanted y envie para nosotros!

    Ex.: http://www.youtube.com/watch?v=0IvSvIwGdwk
    ver cover de otras canciones »
    0:00 / 0:00

    Capitulos

      2 versões de contrabajoreproduccionescontribuición y correción
      5 versões de Guitar Proformatodownloadscontribuición
      1 versão de partiturasformatodownloadscontribuición
      play/pausefechar subir/bajar velocidad
      6ª cuerda E5ª cuerda A4ª cuerda D3ª cuerda G2ª cuerda B1ª cuerda E
        acordes
        publicidad
        cerrar
        ok