Falling/Fallin Again

Lacuna Coil

 Lacuna Coil
Tono: G
		
Since Falling and Falling Again are basically the same I decided to do 
them both at the same time.  The only differences are the end solos 
and the heavy part in Falling Again.  I have written all the different 
guitar parts in the order in which they go then they repeat. 




Tuning : E A D G B E 	

 Part 1:
               

|----------------------------------------------------------------|
|----------------------------------------------------------------|
|--------4---------------4---------------4---------------4-------|
|----------------------------------------------------------------|
|0---------------0---------------0---------------0---------------|
|----------------------------------------------------------------|


               

|----------------------------------------------------------------|
|----------------------------------------------------------------|
|--------5---------------5---------------5---------------5-------|
|----------------------------------------------------------------|
|0---------------0---------------0---------------0---------------|
|----------------------------------------------------------------|


               

|----------------------------------------------------------------|
|----------------------------------------------------------------|
|--------4---------------4---------------4---------------4-------|
|3---------------3---------------3---------------3---------------|
|----------------------------------------------------------------|
|----------------------------------------------------------------|


                

|----------------------------------------------------------------|
|----------------------------------------------------------------|
|--------2---------------2---------------2---------------2-------|
|3---------------3---------------3---------------3---------------|
|----------------------------------------------------------------|
|----------------------------------------------------------------|



 Intro Lead:               


|----------------------------------------------------------------|
|10/-13--10----------10--13--10--------------10--9---10--10------|
|----------------9---------------9-------9-----------------------|
|------------------------------------10--------------------------|
|----------------------------------------------------------------|
|----------------------------------------------------------------|


               

|----------------------------------------------------------------|
|----------------10--------------------------------------10/-13--|
|10------7---10------10--7---------------7---10--9---7-----------|
|--------------------------------9-------------------------------|
|----------------------------------------------------------------|
|----------------------------------------------------------------|


 

|----------------------------------------------------------------|
|10----------10--13--10------------------10--9---10--10----------|
|--------9---------------9-----------9-----------------------10--|
|----------------------------10----------------------------------|
|----------------------------------------------------------------|
|----------------------------------------------------------------|




|----------------------------------------------------------------|
|------------10--------------------------------------10----------|
|----7---10------10--7---------------7---10--9---7---------------|
|----------------------------9-----------------------------------|
|----------------------------------------------------------------|
|----------------------------------------------------------------|



  Part 2:

  Gtr. 1

|----------------------------------------------------------------|
|----------------------------------------------------------------|
|--------2---------------2---------------2---------------2-------|
|----------------------------------------------------------------|
|0---------------0---------------0---------------0---------------|
|----------------------------------------------------------------|




|----------------------------------------------------------------|
|----------------------------------------------------------------|
|--------0---------------0---------------0---------------0-------|
|----------------------------------------------------------------|
|----------------------------------------------------------------|
|1---------------1---------------1---------------1---------------|


 

|----------------------------------------------------------------|
|----------------------------------------------------------------|
|--------4---------------4---------------4---------------4-------|
|----------------------------------------------------------------|
|----------------------------------------------------------------|
|0---------------0---------------0---------------0---------------|


 

|----------------------------------------------------------------|
|--------6---------------6---------------6---------------6-------|
|----------------------------------------------------------------|
|----------------------------------------------------------------|
|5---------------5---------------5---------------5---------------|
|----------------------------------------------------------------|


 
  Gtr. 2

|----------------------------------------------------------------|
|10----------10------8-----------8-------8-----------8-------6---|
|--------9-------9-----------9-------9-----------9-------9-------|
|----------------------------------------------------------------|
|----------------------------------------------------------------|
|----------------------------------------------------------------|


            Reapeat this throughout Part 2

|----------------------------------------------------------------|
|----6---8-------------------------------------------------------|
|9---------------------------------------------------------------|
|----------------------------------------------------------------|
|----------------------------------------------------------------|
|----------------------------------------------------------------|


 
  Part 3:
              

|----------------------------------------------------------------|
|----------------------------------------------------------------|
|----------------------------------------------------------------|
|--------2---------------2---------------0---------------0-------|
|----------------------------------------------------------------|
|1---------------1---------------0---------------0---------------|




|----------------------------------------------------------------|
|----------------------------------------------------------------|
|----------------------------------------------------------------|
|--------2---------------2---------------0---------------0-------|
|0---------------0---------------3---------------3---------------|
|----------------------------------------------------------------|


 This measure comes at the very end of the chorus during the
 "...Im fallin' down" line.


|----------------------------------------------------------------|
|----------------------------------------------------------------|
|----------------------------------------0-----------------0-----|
|--------2---------------2---------------------------------------|
|----------------------------------------------------------------|
|1---------------1---------------3-----------------3-------------|



 
  Heavy Part in Falling Again:
 

|----------------------------------------------------------------|
|----------------------------------------------------------------|
|----------------------------------------------------------------|
|--------------------------------2---------------5---------------|
|3---------------2---------------0---------------3---------------|
|1---------------0-----------------------------------------------|



  The same thing applies to this measure as the one two measures up.
 

|----------------------------------------------------------------|
|----------------------------------------------------------------|
|----------------------------------------------------------------|
|----------------------------------------------------------------|
|3---------------5-----------------------------------------------|
|1---------------3-----------------------------------------------|


 
  Falling Solo:


|----5---7---8---7---5-------------------------------------------|
|--5---------------------5-------------------5-------5-----------|
|5---------------------------7---5-------7-------7-------5---5---|
|----------------------------------------------------------------|
|----------------------------------------------------------------|
|----------------------------------------------------------------|


 

|----5---7---8---7---5-----------------------------------5---5---|
|--5---------------------5-------------------5-------5-----------|
|5---------------------------7---5-------7-------7---------------|
|----------------------------------------------------------------|
|----------------------------------------------------------------|
|----------------------------------------------------------------|


 

|----5---7---8---7---5-------------------------------------------|
|--5---------------------5-------------------5-------5-----------|
|5---------------------------7---5-------7-------7-------5---5---|
|----------------------------------------------------------------|
|----------------------------------------------------------------|
|----------------------------------------------------------------|


 

|----5---7---8---7---5-------------------------------------------|
|--5---------------------5---------------------------------------|
|5---------------------------7---5-------4---2-------1---2---4---|
|----------------------------------------------------------------|
|----------------------------------------------------------------|
|----------------------------------------------------------------|


 

|----------------------------------------------------------------|
|----------------------------------------------------------------|
|5-------5/--7---------------------------------------------------|
|----------------------------------------------------------------|
|----------------------------------------------------------------|
|----------------------------------------------------------------|


 
  Falling Again Solo:


|--------8-----------7-------------------------------------------|
|0/--5---------------------------5---------6---5h6p5-------------|
|------------0/--7-------0/--7-------5---------------5---4/--7---|
|----------------------------------------------------------------|
|----------------------------------------------------------------|
|----------------------------------------------------------------|


 

|--------8-------------------------------------------------------|
|5h--6-------5-------6-------------------------------------------|
|------------------------4-------4h--5---2-------4---5---7-------|
|----------------------------------------------------------------|
|----------------------------------------------------------------|
|----------------------------------------------------------------|




|--------8-----------7-------------------------------------------|
|0/--5---------------------------5-----------6---5h6p5-----------|
|------------0/--7-------0/--7-------5-------------------5---4---|
|----------------------------------------------------------------|
|----------------------------------------------------------------|     
|----------------------------------------------------------------|


 

|----------------------------------------------------------------|
|--------------------------------0/--6---5-----------------------|
|7-------4-------2-------1/--2---------------5-------------------|
|----------------------------------------------------------------|
|----------------------------------------------------------------|
|----------------------------------------------------------------|


  Both versions end with an Aminor chord played on the 5th fret.
                                5
				5
				5
				7
				7
				5
                     
  

Comentarios 0

Composición: Carole King / Cristina Scabbia
Ese no és el compositor? Avisenos.
Exhibir acordes »
publicidad
cerrar