Angel

Judas Priest

 Judas Priest
Tono: D
		
Intro 5x: Bm7 Bm7 G A

guitarra clean:


E|-----------------------------------------------------------------------------|
B|------2h3-3-2-3---------------------2h3-5-3----------------------------------|
G|------2--------------0------2-------2------------0-----2---------------------|
D|----3-----------------0----2-2----3---------------0---2-2--------------------|
A|---2---------------2------0------2--------------2----0-----------------------|
E|------------------3----------------------------3-----------------------------|


guitarra solo:


B|-14-15-12---14-15-17--15-14--12------12-12--------------------------------------|
G|--------------------------------14-----9-11--9-11-12--11--9-7-6-----------------|
D|-------------------------------------------------------------------------9p-7-9-|
A|--------------------------------------------------------------------------------|
E|--------------------------------------------------------------------------------|


Verso:
Bm7   G  A             Bm7            G
Angel -  put sad wings around me now
   A                 Bm7                  G      A     Bm7   G  A
Protect me from this world of sin So that we can rise again
   Bm7   G A               Bm7         G
Oh angel - we can find our way somehow
  A               Bm7                 G           A    Bm7   G  A
Escaping from the world we're in to a place where we began

Refrão:
      G          Bm
And I know we'll find a better place and
G        Bm
peace of mind just tell me that it's
G       Em                 F#
all you want - for you and me
F#
Angel won't you set me free

(Intro)

Interlúdio 2x: Bm7 Bm7 G A

(Verso)
Bm7   G   A               Bm7           G
Angel   remember how we'd chase the sun
A                Bm7                   G         A      Bm7  G  A
Then reaching for the stars at night as our lives had just begun

(refrão)
       G        Bm                      G         Bm
When I close my eyes I hear your velvet wings and cry
                      G    Em                  F#
I'm waiting here with open arms - oh can't you see
F#
Angel shine your light on me


    (solo 4x) Bm G A
E|------------------------------------------------------------17----17-15-14---14-15-14----------------------|
B|---14-15-12---14-15-17--15-14----------12-12----14-15-17-15--------------------------14-15-17b19--15--15-|
G|------------------------------14--\11---------------------------------------------------------------16--16-|
D|-----------------------------------------------------------------------------------------------------------|
A|-----------------------------------------------------------------------------------------------------------|
E|-----------------------------------------------------------------------------------------------------------|



E|----------------------------------------------------------------------------------|
B|----------------------------------------------------------------------------------|
G|----------9-11-12-11-------9------------------------------------------------------|
D|-9-11-12---------------------12-11-9----------------------------------------------|
A|----------------------------------------------------------------------------------|
E|----------------------------------------------------------------------------------|


(ponte)
Em             F#
   angel we'll meet once more I'll pray
Bm             G
   When all my sins are washed away

Edim7          F#
   Hold me inside your wings and
Bm Bm/A G
stay
F#                 Bm   G
Angel take me far away

(outro)
A              Bm
Put sad wings around me now
G             A    Bm    G
Angel take me far away
A              Bm
Put sad wings around me now
        G      A    Bm      G
So that we can rise again
A              Bm
Put sad wings around me now
G             A    Bm    G
Angel take me far away
A              Bm
Put sad wings around me now
        G      A     G       A  Bm
So that we can rise again

Comentarios 12

  • Felipe Felipe: Publicado en 23/07/2014 12:26

    e facil de saber as cordas

  • fycf fycf: Publicado en 13/02/2014 13:37

    Perfeita .-.

  • cid.roberto.92 cid.roberto.92: Publicado en 07/02/2014 20:14

    a musica é muito fácil...nem peçam video aula o cifra club prefere fazer sertanojos do que música boa

  • lukewilkshire.lukwill lukewilkshire.lukwill: Publicado en 17/01/2014 14:46

    hum

  • cabeça cabeça: Publicado en 31/12/2013 12:29

    Excelente!!!

  • angus young ,. angus young ,.: Publicado en 31/07/2013 23:22

    video aula please

  • reykjavic9 reykjavic9: Publicado en 31/10/2012 14:05

    muito boa.

  • nickolas. nickolas.: Publicado en 02/02/2012 00:32

    uhhuuu...

  • danscorpions danscorpions: Publicado en 05/01/2012 16:41

    Muito facil,aprendi el toda e sem video-aula
    A melhor do Judas !!!

  • luizthrasher luizthrasher: Publicado en 20/09/2011 20:33

    ja ouvio falar no guitar pro ?
    ¬¬'

Exhibiendo 10 de 12 comentarios Mostrar más ver todo »
Composición: Glenn Tipton / Håkan Lundqvist / J. D. Souther / Paul Jenkins / Paul McCartney / R.R Soares / Spacey Glow
Ese no és el compositor? Avisenos.
Contribución: Priester Correcciónes: Felipe , Dave Mustaine e mais 2 »
Exhibir acordes »
publicidad
cerrar