Boom Boom

John Lee Hooker

 John Lee Hooker
Tono: F
		
Intro:

                    F  A# F               F  A# F                      A# D# A#
e||-------------------------------------------------|---------------------------|
B||-------4---------1-3-3-1-----0---------1-3-3-1---|-----4------------6-8-8-6--|
G||---/5----5-3-1---2-3-3-2----1--3--1----2-3-3-2---|--/5---5-3-1------7-8-8-7--|
D||---------------3-3-3-3-3---3--------3--3-3-3-3---|-------------3-1--8-8-8-8--|
A||-----------------3-1-1-3---------------3-1-1-3---|------------------8-6-6-8--|
E||-------------------------------------------------|---------------------------|



              F  A# F                       C F F C                F  A# F
------------------------|-----------------------------|---------------------|
----0---------1-3-3-1---|-----4-------------1-1-1-1---|------------1-3-3-1--|
---1--3--1----2-3-3-2---|--/5---5-3-1--3-1--0-2-2-0---|-------1----2-3-3-2--|
--3--------3--3-3-3-3---|-------------------2-3-3-2---|----1-3--3--3-3-3-3--|
--------------3-1-1-3---|-------------------3-3-3-3---|--3---------3-1-1-3--|
------------------------|-----------------------------|---------------------|


Boom boom boom boom 
  F   A#      A#        F    
I'm gonna shoot you right down, 
  F   A#      A#        F    
right offa your feet 
  F   A#      A#        F    
Take you home with me, 
  A#   D#     D#        A#    
put you in my house 
  F   A#      A#        F    
Boom boom boom boom 
  A#   D#     D#        A#  
A-haw haw haw haw 
  C   F       F         C
Hmmm hmmm hmmm hmmm 
  F   A#      A#        F  
Hmmm hmmm hmmm hmmm 

O Resto da Musica é a mesma coisa.
 Os Solos feito enquanto ele fala são os mesmos da introdução.

Comentarios 0

Composición: David Usher / K. Karlin / Leonardo Beccafichi
Ese no és el compositor? Avisenos.
Contribución: fvinicius
Consigo tocarSin embargo, para tocar esta canción. ¡Sé el primero!
    Aún no puedo reproducir
    Exhibir acordes »
    publicidad
    cerrar