Jads e Jadson

Jeito Carinhoso

1.705 reproducciones
Tono: G
Solo Intro:


   Em             C      G/B
E|-----------------------------------------|
B|-0-------0-------------------------------|
G|---0---0-----0------0------0-------------|
D|-----2-----2------2------0---------------|
A|----------------3------2-----------------|
E|-0---------------------------3-----------|


   Em             C      G/B
E|-7-------7-------------------------------|
B|---8---8-----8---------------------------|
G|-----9-----9--------0------0-------------|
D|------------------2------0---------------|
A|----------------3------2-----------------|
E|-0---------------------------3-2---------|


Primeira parte:

Em           C               G          D
  Como esquecer o beijo que você me deu
Em           C             G          D
  Não sei se era pra esquecer ou lembrar
Em     C                G       D
  E ficou um pedaço de você em mim
Em            C          G        D     Am  D
  E hoje eu quero te ver   pra me entregar

Refrão:
            Am
Como eu quero
                               D
De novo um beijo seu muito gostoso
                            G
Do jeito que cê faz é carinhoso
              G    D/F# Em
Por isso eu quero suas mãos em mim
            Am
Como eu quero
                             D
O cheiro de amor que vem chegando
                     Em            D/F#  G
Trazendo o seu corpo    só pra mim
            Am
Como eu quero
                               D
De novo um beijo seu muito gostoso
                            G
Do jeito que cê faz é carinhoso
              G    D/F# Em
Por isso eu quero suas mãos em mim
            Am
Como eu quero
                             D
O cheiro de amor que vem chegando
                     Em
Trazendo o seu corpo    só pra mim

Repetições:

Am  D  G  D/F#  Em  Am  D  Em  D/F#

Primeira Parte:
Em           C               G          D
  Como esquecer o beijo que você me deu
Em           C             G          D
  Não sei se era pra esquecer ou lembrar
Em     C                G       D
  E ficou um pedaço de você em mim
Em            C          G        D     Am  D
  E hoje eu quero te ver   pra me entregar

Refrão:
            Am
Como eu quero
                               D
De novo um beijo seu muito gostoso
                            G
Do jeito que cê faz é carinhoso
              G    D/F# Em
Por isso eu quero suas mãos em mim
            Am
Como eu quero
                             D
O cheiro de amor que vem chegando
                     Em            D/F#  G
Trazendo o seu corpo    só pra mim
            Am
Como eu quero
                               D
De novo um beijo seu muito gostoso
                            G
Do jeito que cê faz é carinhoso
                G  D/F# Em
Por isso eu quero suas mãos em mim
            Am
Como eu quero
                             D
O cheiro de amor que vem chegando
                     Em
Trazendo o seu corpo    só pra mim

Final:

Am D

Solo final:


   Em             C      G/B    Em
E|------------------------------0----------|
B|-0-------0--------------------0----------|
G|---0---0-----0------0------0--0----------|
D|-----2-----2------2------0----2----------|
A|----------------3------2------2----------|
E|-0----------------------------0----------|
    Composición: Allê BarbosaColaboración y revision:
    • Márcio
    • gustavofofao
    • jefflacerda
    • leonir
    • +6

    ¿conseguiste tocar?

    • Gabriella
    • Régis
    • jsilverize
    • Yuri
    • kelvi.queiros
    • Emanuel
    • Daniel
    • •••
    0:00 / 0:00

    Capitulos

      1 versão de Guitar Proformatodownloadscontribuición
      1 versão de partiturasformatodownloadscontribuición
      play/pausefechar subir/bajar velocidad
      6ª cuerda E5ª cuerda A4ª cuerda D3ª cuerda G2ª cuerda B1ª cuerda E
        acordes
        publicidad
        cerrar
        ok