Meu Ódio

Irvin

 Irvin Compositor: sefh
Tono: C
		
(afinação D)

(intro)


D|------------------------------------------------------------------------------------|
A|--9----------9-------------9---------------5-------------5---------------5----------|
D|-------11--------12---------------11---------------7------------8----------------7--|x6
G|------------------------------------------------------------------------------------|
B|------------------------------------------------------------------------------------|
E|------------------------------------------------------------------------------------|


(base)

|D|--99999---77777---55555---22222---55555--------------------|
|A|--99999---77777---55555---22222---55555--------------------|
|D|--99999---77777---55555---22222---55555--------------------|x4
|G|-----------------------------------------------------------|
|B|-----------------------------------------------------------|
|E|-----------------------------------------------------------|


(refrão)

|D|--000000---30303---000000---35353------------3---5---------|
|A|--000000---30303---000000---35353------------3---5---------|
|D|---------------------------------------------3---5---------|x4
|G|-----------------------------------------------------------|
|B|-----------------------------------------------------------|
|E|-----------------------------------------------------------|


(base)

|D|--99999---77777---55555---22222---55555--------------------|
|A|--99999---77777---55555---22222---55555--------------------|
|D|--99999---77777---55555---22222---55555--------------------|x4
|G|-----------------------------------------------------------|
|B|-----------------------------------------------------------|
|E|-----------------------------------------------------------|


(ponte)

|---000000000000/~-----------------------------------------------------|
|---000000000000/~-----------------------------------------------------|
|---000000000000/~-----------------------------------------------------|
|----------------------------------------------------------------------|
|--------------------------------------------17*~----------------------|
|----------------------------------------------------------------------|


(refrão)

|D|--000000---30303---000000---35353------------3---5---------|
|A|--000000---30303---000000---35353------------3---5---------|
|D|---------------------------------------------3---5---------|x4
|G|-----------------------------------------------------------|
|B|-----------------------------------------------------------|
|E|-----------------------------------------------------------|


(base)

|D|--99999---77777---55555---22222---55555--------------------|
|A|--99999---77777---55555---22222---55555--------------------|
|D|--99999---77777---55555---22222---55555--------------------|x4
|G|-----------------------------------------------------------|
|B|-----------------------------------------------------------|
|E|-----------------------------------------------------------|


(final)

|---0-------------------------------------------------------|
|---0-------------------------------------------------------|
|---0-------------------------------------------------------|x15
|-----------------------------------------------------------|
|-----------------------------------------------------------|
|-----------------------------------------------------------|
78 exhibiciónes

Comentarios 0

Composición: Fábio
Ese no és el compositor? Avisenos.
Contribución: bandairvin Correcciónes: bandairvin »
Exhibir acordes »
publicidad
cerrar