Love will show you everything

Jennifer Love Hewitt

 Jennifer Love Hewitt
Tono: G
		
(intro 2x) 

    G    G4
E|----10----10-10-8-------------|
B|---8----8---------------------|
G|------------------------------| 
D|------------------------------|
A|-10---10----------------------|
E|------------------------------|


(riff)

     G   D/F#  Em7   C
E|-----10---10---10-----8--------|
B|----8----10---8------8---------|
G|---7----7----9------9----------|
D|------------------10-----------|
A|-10----9----7------------------|
E|-------------------------------|


G     D/F#                 Em
Today, today I bet my life
     C          G
You have no idea
  D/F#           Em      C
What I feel inside
   G       D/F#             Em
Don’t be afraid to bet it show
   C            G       D/F#       Em     C
For you never know if you let it out

(refrão)
 G          Em7
I love you, you love me
 F                  D          G
Take this gift and don’t ask why
              Em7
'Cause if you will let me
   F
I’ll take what scares you,
            D    G
Hold it deep inside
         Em7         F
And if you ask me why
                C/E
I’m with you, and why
       D     C7+   G/B  Am7
I’ll never leave
 D7/9/11                   G G4
Love’ll show you everything


E|----10----10-10-8-------------|
B|---8----8---------------------|
G|------------------------------|  (2x)
D|------------------------------|
A|-10---10----------------------|
E|------------------------------|


  Bb            C                D
One day when youth is just a memory
  Bb                   C
I know you’ll be standing
              D
Right next to me


E|------------------------------|
B|------------------------------|
G|------------------------------|
D|--------5-4-3-----------------|
A|--------------5-3-------------|
E|------------------------------|


(refrão)
G         Em7
I love you, you love me
F                   D          G
Take this gift and don’t ask why
         Em7
'Cause if you will let me
F
I’ll take what scares you,
          D        G
Hold it deep inside
          Em7        F
And if you ask me why
                C/E
I’m with you, ancd why
       D        C7+
I’ll never leave
D7/9/11                G     Em   C
Love’ll show you everything


E|----10----10-10-8-------------|
B|---8----8---------------------|
G|------------------------------|  (2x)
D|------------------------------|
A|-10---10----------------------|
E|------------------------------|
205 exhibiciónes

Comentarios 0

Composición: Jennifer Love Hewitt
Ese no és el compositor? Avisenos.
Contribución: felipe.ars Correcciónes: fabinhosp76 , crismartins5 e mais 2 »
Consigo tocarSin embargo, para tocar esta canción. ¡Sé el primero!
    Aún no puedo reproducir
    Exhibir acordes »
    publicidad
    cerrar