Welcome To The Jungle

Guns N' Roses

 Guns N' Roses
Tono: D
		
Intro:
(guitarra 1 - com delay)

E|-----------------------------------------------------------|
B|---(0)----(0)------(0)-------(0)------{0}--(0)-------------|
G|--4---4--2-----2-------------------------------------------|   (6x)
D|------------------4-----4---2-----2--0---------------------|
A|-----------------------------------------2-----------------|
E|-----------------------------------------------------------|


(guitarra 2) B   A   G   Em
             B   Em   G   C   A

(guitarra 3 - 2x)

E|-----------------------------------------------|
B|-----------------------------------------------|
G|------------7-9-9b10r9---7/--------------------|
D|---7/9--9-------------------7/9--9\2-----------|
A|-----------------------------------------------|
E|-----------------------------------------------|


(guitarra 3)


E|---7--7/5--3------------|
B|---7--7/5--3------------|
G|----------------7-------|
D|----------------7-7-----|
A|----------------5-7-----|
E|------------------5-----|




E|---------------------------5-------------------|
B|-----------------3--5--5fb---5b/r---3----------|
G|------------2--4------------------------4------|
D|----4--2--4------------------------------------|
A|--2--------------------------------------------|
E|-----------------------------------------------|


Verso: A5 G5 A5 G5 F#5 E5
       D5 C5 D5 C5 Bm5 E5

Refrão: C5  D5 E5


E|----------------------|
B|----------------------|
G|----------------------|
D|----------------------|
A|-----7-7-5------------|
E|-----------6-5-3-0----|


(guitarra 1)

E|--------------------x--5--------------------|-------------------------|
B|--------------------------------------------|-------------------------|
G|---2-----------x----------------------------|--2-x-x-----2-2--0-------|
D|---2-----------x----------------------------|--2-x-x-----2-2--0-------|
A|---0-----0-----x------------------3p0-------|--0-x-x-----0-0--------0-|
E|----------------------------------------2---|--------3hb--------3-2---|


(guitarra 2)

E|--------------------------------------------|-------------------------|
B|--------------------------------------------|-------------------------|
G|-7fb5-----7--5hb----------------------------|-------------------------|
D|-------7---------7-5------------------------|-------------------------|
A|----------------------7--6--5+3--5--3-------|-0-0-----0-0-------------|
E|---------------------------------------5--3-|-----3hb-----3hb--2--0-0-|


(guitarra 3) A

('We are the people that can find...')
(guitarra 1)
   P.M.  P.M.

E|--------------------------|---------------------------|
B|--------------------------|---------------------------|
G|--9--9--7-x-9--9----------|--2-x-x-----2-2--0---------|
D|--9--9--7-x-9--9--7--6--4-|--2-x-x-----2-2--0---------|
A|--7--7--5-x-7--7--5--4--2-|--0-x-x-----0-0----------0-|
E|--------------------------|--------3hb--------3--2----|


(guitarra 2)

E|--------------------------|---------------------------|
B|--------------------------|---------------------------|
G|--------------------------|---------------------------|
D|--------------------------|---------------------------|
A|-7--7--5--7--7--7-5--4--2-|-7--7--5--7--7--7--5--4--2-|
E|-5--5--3--5--5--5-3--2--0-|-5--5--3--5--5--5--3--2--0-|


(Refrão)

Solo 1:


E|------------------------------------------------------------------------|
B|----------------------------------12-----------15~--------------15--15~~|
G|--12/13-------------13---13~(13)--12--13-x-x---16~--12/11-------13--13~~|
D|--11/12-----(12)-14-14---14~(14)------14-x-x--------13/12---------------|
A|------------------------------------------------------------------------|
E|---------0------------------------------------------------0--0----------|



E|--------------------------15--15--------------19fb----19-18-17fb--15-16-|
B|~~~(15)p12---14/15--------15--15-----------17---------------------------|
G|~~~(13)------15/16----------------6/0--/18------------------------------|
D|------------------------------------------------------------------------|
A|------------------------------------------------------------------------|
E|------------------------------------------------------------------------|



E|------------------------------------------------------------------------|
B|-15~---(15)---15fb--(15)--15p12-----------------------------------------|
G|---------------------------------14fb--14hb(14)p12--14-12---------------|
D|-----------------------------------------------------------14-14--------|
A|-----------------------------------------------------------------13-13--|
E|------------------------------------------------------------------------|



E|--------------------------A.H.------------------------------------------|
B|------------------------------------------------------------------------|
G|--------------------------8hb-------------------------------------------|
D|-----------------------------------------------11-----------------------|
A|-12fb-(12)p10-----------------------------------------------------------|
E|---------------12-------------------------------------------------------|


Pós-Refrão:

     D          G                    D                G
E|-------------3-----(3)-------------------------------------------------|
B|--7----------3-----(3)---6hb-----7---8p7----------12--13p12----------8-|
G|--7----------4-----(4)---4hb-----7---7------------12---------7-5--5----|
D|--7----5-----5-----(5)-----------7---7----7---10--12-------------------|
A|--5----3-----5-----(5)-----------5-------------8--10-------------------|
E|-------------3-----(3)-------------------------------------------------|

  G                     C                        G                 C
     And when...     high    you never              ever want to come down

E|------------------------------------------------------------------------|
B|-7-------------------12---13p12---------10-7---7------------------------|
G|---7-----------------12------------------------7------------------------|
D|-----7--6--7----10---12---------12p10---10-7---7-----------------10-----|
A|-----------------8---10-------------------------------------------8-----|
E|------------------------------------------------------------------------|

 C5                                            E5
so  down   so   down   so  down              Yeah!

Pré-solo:


E|------------------------------------------------------------------------|
B|------------------------------------------------------------------------|
G|-------6/7-------------9-------9-----9---6/7------------------12---12---|
D|-------5/6-------------9-------9-----9---5/6------------------12---12---|
A|------------------------------------------------------------------------|
E|---0---------0----0---------0-------------------0-------0---------------|



E|------------------------------------------------------------------------|
B|------------------------------------------------------------------------|
G|-------6/7-------------9-------9-----9---6/7------------------12---12---|
D|-------5/6-------------9-------9-----9---5/6------------------12---12---|
A|------------------------------------------------------------------------|
E|---0---------0----0---------0-------------------0-------0---------------|


Solo 2:


E|--------------------------------------------------------------------------|
B|--------------------------------------------------------------------------|
G|-----------------------------------------------9hb-----------11fb--(11)---|
D|---------------------------------9-9hb-11-(11)---------11-----------------|
A|--------7----9fb--(9)----7-7-9/11-----------------------------------------|
E|--9--------9--------------------------------------------------------------|



E|----------------------------------------------------------------------0---|
B|-------------------------------12-(12)-------12--------------------5--5---|
G|--(11)----11fb(11)p9-----9hb---11-(11)-------11-(11)p9------------6-6-----|
D|----------------------11-------------------------------11-9-(9)/6---------|
A|--------------------------------------------------------------------------|
E|--------------------------------------------------------------------------|



E|--(0)--0--0--0------------------------------------------------------------|
B|--(5)--3--2--0---2hb--2hb--0----0----0--(0)--0--0--0--0--2--4-------------|
G|-----------------2hb--2hb--0--1-1--2-4--(4)--4--2--2--1--2--4-------------|
D|---------------------------------------------------------4--4--2fb(2)p0-2-|
A|--------------------------------------------------------------------------|
E|--------------------------------------------------------------------------|



E|--------------------------------------------------------------------------|
B|---------15-15fb-(15)-15fb(15)--------------------------------14-12-------|
G|-/4----------------------------14fb-14fb--14fb(14)p12----------------6hb--|
D|-/4--/12-----------------------------------------------14-12--14-12-------|
A|--------------------------------------------------------------------------|
E|--------------------------------------------------------------------------|



E|--------------------------------------------------------------------------|
B|--------------------------------------------------------------------------|
G|--(6)--4------------------------------------------------------------------|
D|----------6hb------4------------------------------------------------------|
A|---------------------4-(4)--2---------------------------------------------|
E|------------------------------4hb----0--2----------------------------(2)--|


( F#m G )
( G5 G#5 G5 Gb5 B5 Gb5 B5 )

(Refrão)

( E5 )

Intro: ( E) B A G E B A E D A B ( A )

   A
   Welcome to the jungle
   We got fun'n'games
   We got everything you want
   Honey we know the names

              E
   We are the people that can find
   Whatever you may need
   If you got the money honey
   We got your disease

           C
   In the jungle
                   D
   Welcome to the jungle
                             E
   Watch it bring you to your knees, knees
   I wanna watch you bleed

    A
   Welcome to the jungle
   We take it day by day
   If you want it you're gonna bleed
   But it's the price you pay

                 E
   And you're a very sexy girl
   That's very hard to please
   You can taste the bright lights
   But you won't get them for free

           C
   In the jungle
                   D
   Welcome to the jungle
           E
   Fell my, my, my serpentine
     B                          E
   I, I wanna hear your scream

    A
   Welcome to the jungle
   It gets worse here everyday
   Ya learn ta live like an animal
   In the jungle where we play

                 E
   If you got a hunger for what you see
   You'll take it eventually
   You can have anything you want
   But you better not take it from me

           C
   In the jungle
                   D
   Welcome to the jungle
                             E
   Watch it bring you to your knees, kness
                           D G D G
   I wanna watch you bleed

  D                    G
   And when you're high you never
  D                      G
   Ever want to come down
   F   G    F   G    F   A     E  E7/9 E E7/9 C#m B C#m B C#m
   So down, so down, so down, yeah         B E B E B A F# B E

  E
   You know where you are
   You're in the jungle, baby

                   F# F F# G A G# A A#
   You're gonna die

           C
   In the jungle
                   D
   Welcome to the jungle
                             E
   Watch it bring you to your knees, knees
           C
   In the jungle
                   D
   Welcome to the jungle
           E
   Fell my, my, my serpentine
           C
   In the jungle
                   D
   Welcome to the jungle
                             E
   Watch it bring you to your knees, knees
           C
   In the jungle
                   D
   Welcome to the jungle
                        E
   Watch it bring to you
       D    Bb    A  G E A  G E  E7/9
   It's gonna bring you down, ha!
Texto Columnas
Alterar tom ½ tono ½ tono
sintonización acordes esconder tabs más »

Comentarios 104

  • Ricardinho Ricardinho: Publicado en 15/08/2014 16:28

    o vinicius dias faz video aula caramba kk

  • hertz hertz: Publicado en 05/08/2014 08:50

    Não sei nem começar essa, não sei como não fizeram video aula até hj...

  • Geronimo Geronimo: Publicado en 19/07/2014 15:28

    VÍDEO AULA POR FAVOR!!!

  • Mateus Mateus: Publicado en 26/04/2014 00:30

    Vídeo aula por favor !!!!!!

  • Pedro Pedro: Publicado en 26/02/2014 19:16

    por favor façam uma video aula!!
    por favor fofao ozielzinho alguem faça uma videi aula pora favoooor necessitoooo una video aulaaaa

  • camilo.rabelo.7 camilo.rabelo.7: Publicado en 12/02/2014 18:10

    Faz vídeo aula ae

  • Alisson Alisson: Publicado en 20/01/2014 17:14

    amooo GUN'S mto fodaa

  • Arthur Gabriel Arthur Gabriel: Publicado en 18/01/2014 23:03

    nossa n tem cifra dessa música 0.o vamos lá fofão cifra aí vai

  • marcos marcos: Publicado en 18/12/2013 11:46

    por favor hagan una clase con esta canción que esta muy buena

  • slashpk slashpk: Publicado en 11/10/2013 02:27

    QUEM QUISER VIDEO AULA É SÓ ACESSAR
    O SITE DA CIFRA CLUB E ACRECENTAR NA URL / tv / videoaulas / pedir-aula

Exhibiendo 10 de 104 comentarios Mostrar más ver todo »
Composición: Leo Kottke / Mariella Nava
Ese no és el compositor? Avisenos.
Contribución: 2pac Correcciónes: Artur , Renan Cunha e mais 5 »
  1. Sweet Child O' Mine - Guns N' Roses mantiene 3.049 exhibiciones
  2. Wonderwall - Oasis mantiene 2.220 exhibiciones
  3. All Of Me - John Legend mantiene 2.204 exhibiciones
  4. Nothing Else Matters - Metallica mantiene 1.629 exhibiciones
  5. When I Was Your Man - Bruno Mars mantiene 1.573 exhibiciones
  6. Stairway To Heaven - Led Zeppelin mantiene 1.536 exhibiciones
  7. More Than Words - Extreme mantiene 1.460 exhibiciones
  8. Hey Jude - The Beatles mantiene 1.359 exhibiciones
  9. The Scientist - Coldplay mantiene 1.347 exhibiciones
  10. I'm Yours - Jason Mraz mantiene 1.105 exhibiciones
  1. The Beatles- mantiene 21.514 exhibiciones
  2. Guns N' Roses- mantiene 6.886 exhibiciones
  3. Metallica- mantiene 5.999 exhibiciones
  4. Soda Stereo- mantiene 5.362 exhibiciones
  5. Coldplay- mantiene 4.979 exhibiciones
  6. Red Hot Chili Peppers- mantiene 4.932 exhibiciones
  7. Bruno Mars- mantiene 4.869 exhibiciones
  8. Oasis- mantiene 4.521 exhibiciones
  9. Nirvana- mantiene 4.519 exhibiciones
  10. One Direction- mantiene 4.321 exhibiciones
Exhibir acordes »

Acordes y tabs

Aprenda

Studio Sol

©1996 - 2014 Cifra Club · el primero, mayor y más accedido del Brasil · 339 mil músicas · 6.3 millones de personas registradas

publicidad
cerrar