A Desconhecida (versão Original)

Fernando Mendes

 Fernando Mendes
Tono: D
		
Intro:

E|-----------------------------------------------------------------------------------------------|
B|---5----5---------5----5---------5----5-----------------7----7---------7----7---------7----7---|
G|--6----6---------6----6---------6----6-----------------7----7---------7----7---------7----7----|
D|-7----7----7----6----6----6----5----5----5----4-4-6-8-9----9----9----8----8----8----7----7----7|
A|-----------------------------------------------------------------------------------------------|
E|-----------------------------------------------------------------------------------------------|



D                  F#m         Em              A7
  Numa tarde tão linda de sol     ela me apareceu
D                  F#m     ( 54 53 52 50 )              Em         A7
  Com um sorriso tão triste             um olhar tão profundo já sofreu
D                 F#m           Em              A7          ( 65 57 55 )
  Suas mãos tão pequenas e frias    sua voz tropeçava também
D                F#m                Em               A7
  Me falava da infância de lágrimas    nunca teve ninguém

      D                F#m              Em    A7
Nunca teve amor não sentiu o calor de alguém
      D              F#m  ( 54 53 52 50 )           Em        A7
Nem sequer ouviu a palavra             carinho, seu ninho não resistiu

D        F#m                    Em    A7             D
  Sinceramente eu chorei de tristeza  ao ouvir tanta coisa
              F#m ( 54 53 52 50 )          Em   A7        ( 65 57 55 )
Que a vida oferece             e a gente padece sem querer

D           F#m              Em                  A7
  Depois de tudo o que eu vi    não consigo esquecer
D               F#m           Em                 A7
  Ela me disse adeus e se foi    nem seu nome eu sei dizer

D             F#m  ( 54 53 52 50 )          Em   A7
  De onde ela veio,            pra onde ela vai, oh! oh!
D           F#m                Em   A7        D
  De onde ela veio, pra onde ela vai     não sei dizer


 ( D   F#m  Em   A7 ) (2x)
E|------5/2h0-----------------|-----------------------------------|
B|--7---------7-7-----------2-|-----7---7-------10---10---8-------|
G|----7---------9---------0---|---7---7------11-------------9-----|
D|-----------------9p7--2-----|-7---------11------11----9-----7-7-|
A|----------------------------|-----------------------------------|
E|----------------------------|-----------------------------------|


      D                F#m              Em    A7
Nunca teve amor não sentiu o calor de alguém
      D              F#m  ( 54 53 52 50 )           Em        A7
Nem sequer ouviu a palavra             carinho, seu ninho não resistiu

D        F#m                    Em    A7             D
  Sinceramente eu chorei de tristeza  ao ouvir tanta coisa
              F#m ( 54 53 52 50 )          Em   A7        ( 65 57 55 )
Que a vida oferece            e a gente padece sem querer

D           F#m              Em                  A7
  Depois de tudo o que eu vi    não consigo esquecer
D               F#m           Em                 A7
  Ela me disse adeus e se foi    nem seu nome eu sei dizer

D             F#m  ( 54 53 52 50 )          Em   A7
  De onde ela veio,            pra onde ela vai, oh! oh!
D           F#m                Em   A7        D
  De onde ela veio, pra onde ela vai     não sei dizer
200 exhibiciónes

Comentarios 17

  • Jose Jose: Publicado en 12/12/2014 23:14

    toca, dedilhando, fica bem melhor :)

  • jorge.gomes.5494 jorge.gomes.5494: Publicado en 31/08/2014 14:53

    cade a video aula??

  • Mateus Mateus: Publicado en 05/06/2014 22:15

    manda vídeo aula

  • wladimir.pereira.7 wladimir.pereira.7: Publicado en 03/05/2014 18:15

    pode tocar no ritmo pop rock que da certo, uma batida em cada acorde BBCCB

  • Walison Walison: Publicado en 07/04/2014 20:06

    eu só sei tocar a introdução quero aprender a musica pf

  • jorge luis jorge luis: Publicado en 22/03/2014 21:41

    cade a video, aula por favor!!!

  • jorge luis jorge luis: Publicado en 21/03/2014 16:52

    porque a vídeo aula nunca sai?????????

  • silvia silvia: Publicado en 06/03/2014 19:30

    consegui tocar muito bom cifra club parabéns

  • fellype.antony.1 fellype.antony.1: Publicado en 20/01/2014 19:29

    mandem a video aula por favor. essa musica eh muito liinda

  • mjean mjean: Publicado en 18/01/2014 11:55

    cifras clube não tem pra ninguém. ensina mesmo a gente a tocar. muito bom .

Exhibiendo 10 de 17 comentarios Mostrar más ver todo »
Composición: Sabe quien és el compositor? Envíenos. Contribución: IZZY(K) Correcciónes: blakwolf e mais 2 »
Exhibir acordes »
publicidad
cerrar