Mil Cairão

Fernandinho

 Fernandinho
Tono: E
		
Intro: G#m B Eb


E|-----------------------------------------------------------------------||
B|-----------------------------------------------------------------------||
G|-----------------------------------------------------------------------||
D|------------------9--9--9--9--9----------------------------------------||
A|--11--11--11--11-------------------------------------------------------||
E|----------------------------------11--11--11--11-----------------------||


ou


       G#m        B        Eb
E|-----------------------------------------------------------------------||
B|-----------------------------------------------------------------------||
G|-----------------------------------------------------------------------||
D|--6-6-6-6----9-9-9-9---13-13-13-13-13-13-13-13-------------------------||
A|--x-x-x-x----x-x-x-x----x--x--x--x--x--x--x--x-------------------------||
E|--4-4-4-4----7-7-7-7---11-11-11-11-11-11-11-11-------------------------||



Eb pode ser feito tambem como:


E|-----------------------------------------------------------------------||
B|-----------------------------------------------------------------------||
G|-8-8-8-8-8-8-8-8-------------------------------------------------------||
D|-x-x-x-x-x-x-x-x-------------------------------------------------------||
A|-6-6-6-6-6-6-6-6-------------------------------------------------------||
E|-----------------------------------------------------------------------||



Riff principal:


         G#m               E         F#m         G#m            E        F#m
E|---------------------------------------|---------------------------------------||
B|---------------------------------------|-----------------------------7-7-7-----||
G|---------------------------------------|-----------------------------6-6-6-----||
D|P.M-------6--9-----6-------2--6-----4--|P.M----6--9---6-----2-----4--4-4-4-----||
A|P.M-----6--6-----6-------2--2-----4----|P.M--6--6----6-----2-2-----------------||
E|P.M---4--------4-------0--------2------|P.M-4-------4-----0--------------------||




G#m           E    G#m              E
 Aquele que habita   no seu esconderijo,
G#m           E    G#m      E
 em seus braços descansará.

(Repete as mesmas notas)

 Nenhum mal te sucederá, nem maldição te alcançará."

 diz o Senhor, diz o Senhor, diz o Senhor...

 Levanto os meus olhos, eu sei de onde vem o meu socorro,

 vem do Senhor, vem do Senhor, vem do Senhor...


*Meio tempo em cada acorde

G#m          E                B                  F#        G#m
 Mil cairão ao meu lado, dez mil cairão à minha direita, mas, eu não,
  E              B          F#
 nunca serei atingido, não!
                 G#m
 nunca serei atingido, não!
  E               B         F#
 nunca serei atingido, não!
                G#m  (E B F#)
 nunca serei atingido... (2x)

G#m
 o O O o o... (4x) ( apenas Bateria na 2x até a 4x )

(REPETE TUDO)

Aquele que habita no seu esconderijo,
à tua sombra descansará.
Nenhum mal te sucederá, nem maldição te alcançará."
diz o Senhor, diz o Senhor, diz o Senhor...
Levanto os meus olhos, eu sei de onde vem o meu socorro,
vem do Senhor, vem do Senhor, vem do Senhor...

GUITARRA SOLO:

 Aquele que habita...  | Em seus braços... | Nenhum mal...      |


E|---------------------|-------------------|--------------------|
B|---9~---7~---9~------|--9~---12~---------|--9~---7~---9~--12~-|
G|---------------------|-------------------|--------------------|
D|---------------------|-------------------|--------------------|
A|---------------------|-------------------|--------------------|
E|---------------------|-------------------|--------------------|


  Levanto os meus olhos... | Vem do Senhor...        ||

E|---11~-------------------|-11~--14~----------------||
B|---------9~--------------|-------------------------||
G|-------------------------|-------------------------||
D|-------------------------|-------------------------||
A|-------------------------|-------------------------||
E|-------------------------|-------------------------||


G#m          E                B                  F#        G#m
 Mil cairão ao meu lado, dez mil cairão à minha direita, mas, eu não,
  E              B          F#
 nunca serei atingido, não!
                 G#m
 nunca serei atingido, não!
  E               B         F#
 nunca serei atingido, não!
                 G#m  (E B F#)
 nunca serei atingido... (2x)

G#m (Baixo e bateria ao fundo)

 Mil cairão ao meu lado, dez mil cairão à minha direita

    H.N*

E|---7-7-7-7-------------------------------------------------------------||
B|-----------7-7-7-7-----------------------------------------------------||
G|----------------7-7-7-7------------------------------------------------|| Tenta pegar de ouvido o numero de
D|----------------------7-7-7--------------------------------------------|| vezes que toca em cada corda.
A|-----------------------------------------------------------------------|| OBS: Todos em harmônico natural.
E|-----------------------------------------------------------------------||


G#m          E                B                  F#        G#m
 Mil cairão ao meu lado, dez mil cairão à minha direita, mas, eu não,
  E              B          F#
 nunca serei atingido, não!
                 G#m
 nunca serei atingido, não!
  E              B          F#
 nunca serei atingido, não!
                 G#m  (E B F#)
 nunca serei atingido... (2x)
Texto Columnas
Alterar tom ½ tono ½ tono
sintonización acordes esconder tabs más »
×

Comentarios (11)

  • João João: Publicado en 25/01/2014 21:43

    Galera do Cifra vocês tinham que fazer mais aulas de música Gospel, faz essa aula ai da Música do Fernandinho . Obg ;)

  • Renato Renato : Publicado en 23/09/2013 13:51

    faz os solos de guitarra de mil cairão por favor

  • Gabriel Gabriel: Publicado en 04/07/2013 22:35

    Corrigida!

  • pahal pahal: Publicado en 24/04/2013 12:25

    Olhem na cifra completa na parte superior na cifra !!!Corrigida por mim !!

  • sifere sifere: Publicado en 31/01/2013 19:35

    pow faz a video aula com a guitarra solo ou bota um guitar pro desde já agradeço !

  • daniiel.w daniiel.w: Publicado en 28/01/2013 18:00

    Na afinação padrão as notas

  • daniiel.w daniiel.w: Publicado en 28/01/2013 18:00

    Eu toquei ela dropando em meio tom a afinação Eb Ab Db Gb Eb Eb e a parte que ele canta menos no refrao só tocar A9 e F

  • eder_motta eder_motta: Publicado en 15/01/2013 10:56

    Eu nunca vi uma cifra tão errada, mas tão errada em toda minha vida...rs e isso que o tom da Música nem é maior....rs

  • grazipoprock1 grazipoprock1: Publicado en 13/12/2012 21:23

    A cifra da música não está certa. guitarforpraise deu a cifra certa. Valeu

  • guitarforpraise guitarforpraise: Publicado en 11/10/2012 20:46

    O tom da musica correto seria em B, o refrão sera G#5, E, B5 e F#, abraço a todos, Deus abençoe

Exhibiendo 10 de 11 comentarios Mostrar más ver todo »
Composición: Fernandinho
Ese no és el compositor? Avisenos.
Contribución: leomagnun Correcciónes: Luã , NisSiN e mais 2 »
  1. Sweet Child O' Mine - Guns N' Roses mantiene 2.929 exhibiciones
  2. Wonderwall - Oasis mantiene 2.144 exhibiciones
  3. Hey Jude - The Beatles mantiene 1.963 exhibiciones
  4. Nothing Else Matters - Metallica mantiene 1.803 exhibiciones
  5. Wake Me Up - Avicii mantiene 1.757 exhibiciones
  6. Stairway To Heaven - Led Zeppelin mantiene 1.636 exhibiciones
  7. When I Was Your Man - Bruno Mars mantiene 1.625 exhibiciones
  8. More Than Words - Extreme mantiene 1.438 exhibiciones
  9. Don't Let Me Down - The Beatles mantiene 1.389 exhibiciones
  10. Get Lucky - Daft Punk mantiene 1.338 exhibiciones
  1. The Beatles- mantiene 24.936 exhibiciones
  2. Metallica- mantiene 8.584 exhibiciones
  3. Guns N' Roses- mantiene 7.955 exhibiciones
  4. Nirvana- mantiene 6.831 exhibiciones
  5. Red Hot Chili Peppers- mantiene 5.685 exhibiciones
  6. One Direction- mantiene 5.319 exhibiciones
  7. Bruno Mars- mantiene 4.923 exhibiciones
  8. Coldplay- mantiene 4.745 exhibiciones
  9. Oasis- mantiene 4.504 exhibiciones
  10. Green Day- mantiene 3.649 exhibiciones
Exhibir acordes »

Acordes y tabs

Aprenda

Studio Sol

©1996 - 2014 Cifra Club · el primero, mayor y más accedido del Brasil · 329 mil músicas · 5.9 millones de personas registradas

publicidad
cerrar