My Immortal

Evanescence

 Evanescence
Tono: A
		
Intro Arpejando (Dedilhado)



     A            C#m          A9               C#m
E|-------------------------------------------------------|
B|-------3-----------5-----------0---------5-------------|
G|----3----3------6----6------3----3-----6---------------|
D|---3-3--3-3----6-6--6------3-3--3-3---6-6--------------|
A|--0-----------4-----------0----------4-----------------|
E|-------------------------------------------------------|





     A            C#m          A9               C#m
E|-------------------------------------------------------|
B|-------3-----------5-----------0---------5-------------|
G|----3----3------6----6------3----3-----6---------------|
D|---3-3--3-3----6-6--6-6----3-3--3-3---6-6--------------|
A|--0-----------4-----------0----------4-----------------|
E|-------------------------------------------------------|





     A            C#m          A9               C#m
E|-------------------------------------------------------|
B|-------3-----------5-----------0---------5-------------|
G|----3----3------6----6------3----3-----6---------------|
D|---3-3--3-3----6-6--6-6----3-3--3-3---6-6--------------|
A|--0-----------4-----------0----------4-----------------|
E|-------------------------------------------------------|



(Verso Arpejando - a partir de F#m toca normal)

A                         C#m
I'm so tired of being here.

A9                      C#m
Suppressed by all of my childish fears.

A
And if you have to leave.

C#m
I wish that you would just leave.

A9
'Cause your presence still lingers here.

C#m                    F#m
And it won't leave me alone.

(Ponte)

C#m                        F#m
These wounds won't seem to heal.

C#m                   F#m
This pain is just too real.

C#m                        E
There's just too much that time cannot erase.

(Refrão)

F#m        D        E        C#m
When you cried i'd wipe away all of your tears.

F#m          D          E        C#m
When you'd scream i'd fight away all of your fears.

F#m       D         E           C#m
And i've held your hand through all of these years.

F#m      D     E             A C#m A9 C#m (Arpejando)
But you still have all of me

(Verso Arpejando - a partir de F#m toca normal)

A
You used to captivate me.

C#m
By your resonating light.

A9                       C#m
But now i'm bound by the life you left behind.

A                  C#m
Your face it haunts my once pleasant dreams.

A9                       C#m                  F#m
Your voice it chased away all the sanity in me.

(Ponte)

C#m                        F#m
These wounds won't seem to heal.

C#m                   F#m
This pain is just too real.

C#m                        E
There's just too much that time cannot erase.

(Refrão)

F#m        D        E        C#m
When you cried i'd wipe away all of your tears.

F#m          D          E        C#m
When you'd scream i'd fight away all of your fears.

F#m       D         E           C#m
And i've held your hand through all of these years.

F#m      D     E
But you still have all of me.


 D             F#m            E               D
I've tried so hard to tell myself that you're gone.
      Bm                E/C#
But though you're still with me.
 D          E
I've been alone all along.

Violão/ guitarra base - F#m D E C#m F#m D E C#m


Violão/ guitarra solo

G|----------------------------6------------------6-7-6-6------|
D|------7-9-7-7-6----7-6b7-----9-7-6---7-9-11b12------9-7-6-7-|
A|-7-9-----------9-9------7---------9-9-----------------------|
E|-------------------------9----------------------------------|



(Refrão)

F#m        D        E        C#m
When you cried i'd wipe away all of your tears.

F#m          D          E        C#m
When you'd scream i'd fight away all of your fears.

F#m       D         E           C#m
And i've held your hand through all of these years.

F#m      D     E
But you still have all of me.

A C#m A9 C#m A C#m A9 C#m (Arpejando)
Texto Columnas
Alterar tom ½ tono ½ tono
sintonización acordes esconder tabs más »

Comentarios 66

  • mayara.hero mayara.hero: Publicado en 18/08/2014 08:33

    Gente o arpejo tá errado.
    onde é o dedilhado do LÁ, é casa 2 e não casa 3.

  • doutoretec doutoretec: Publicado en 20/06/2014 16:12

    tem gente que fica mudando o tom da música para achar uma cifra mais fácil como eu?kkkk

    • cinthya cinthya: Publicado en 31/07/2014 12:09

      Não ._.

  • bela1 bela1: Publicado en 31/05/2014 18:18

    Alguém sabe como é o dedilhado no fim refrão??

  • dihego dihego: Publicado en 29/04/2014 20:31

    E|----------5--7-5---------5--9---5--
    B|---------5--5-5-5------5---5--5---
    G|-------6-------------6------
    D|-
    A|-
    E|-
    tocar ate o refrão

  • Brian Brian: Publicado en 18/04/2014 16:53

    Muiito bom, muiito bom mesmo (y

  • douglas douglas: Publicado en 13/04/2014 17:11

    Não to cosigindo pega o dedilhado :(

    • laisemaz laisemaz: Publicado en 30/06/2014 11:30

      Olá, vc dedilha as cordas Lá, Ré, Sol e Si nessa sequência nos acordes de A, C#m e A9. Espero ter ajudado :D

    • laisemaz laisemaz: Publicado en 30/06/2014 16:34

      Não sequencia não, errei kkkkkkkk, o dedilhado é tocando as cordas: lá, ré, sol, ré, si, ré, sol, ré. Aí vc faz com o A, A9 e C#m, desculpe

  • Sophia Sophia: Publicado en 17/02/2014 17:28

    como é depois de F#M?

    • douglas douglas: Publicado en 14/04/2014 14:26

      A lá :)

Exhibiendo 11 de 66 comentarios Mostrar más ver todo »
Composición: Amy Lee / Ben Moody / David Hodges / Domenico Lancellotti / Paulinho Ramos / Prince
Ese no és el compositor? Avisenos.
Contribución: dark666 Correcciónes: @psicolanna , vitinho16 e mais 12 »
  1. Sweet Child O' Mine - Guns N' Roses mantiene 3.210 exhibiciones
  2. Wonderwall - Oasis mantiene 2.326 exhibiciones
  3. All Of Me - John Legend mantiene 2.112 exhibiciones
  4. Nothing Else Matters - Metallica mantiene 1.884 exhibiciones
  5. Stairway To Heaven - Led Zeppelin mantiene 1.612 exhibiciones
  6. When I Was Your Man - Bruno Mars mantiene 1.566 exhibiciones
  7. More Than Words - Extreme mantiene 1.421 exhibiciones
  8. The Scientist - Coldplay mantiene 1.395 exhibiciones
  9. I'm Yours - Jason Mraz mantiene 1.379 exhibiciones
  10. Hey Jude - The Beatles mantiene 1.275 exhibiciones
  1. The Beatles- mantiene 22.332 exhibiciones
  2. Guns N' Roses- mantiene 7.877 exhibiciones
  3. Metallica- mantiene 7.403 exhibiciones
  4. Coldplay- mantiene 5.304 exhibiciones
  5. Nirvana- mantiene 5.118 exhibiciones
  6. Oasis- mantiene 5.037 exhibiciones
  7. One Direction- mantiene 4.960 exhibiciones
  8. Red Hot Chili Peppers- mantiene 4.934 exhibiciones
  9. Bruno Mars- mantiene 4.845 exhibiciones
  10. Ed Sheeran- mantiene 4.211 exhibiciones
Exhibir acordes »

Acordes y tabs

Aprenda

Studio Sol

©1996 - 2014 Cifra Club · el primero, mayor y más accedido del Brasil · 341 mil músicas · 6.3 millones de personas registradas

publicidad
cerrar