My Immortal

Evanescence

 Evanescence
Tono: A
		
Intro Arpejando (Dedilhado)



       A            C#m          A9               C#m
E|-------------------------------------------------------|
B|-------2-----------5-----------0---------5-------------|
G|----2----2------6----6------2----2-----6---------------|
D|---2-2--2-2----6-6--6------2-2--2-2---6-6--------------|
A|--0-----------4-----------0----------4-----------------|
E|-------------------------------------------------------|





       A            C#m          A9               C#m
E|-------------------------------------------------------|
B|-------2-----------5-----------0---------5-------------|
G|----2----2------6----6------3----3-----6---------------|
D|---2-2--2-2----6-6--6-6----3-3--3-3---6-6--------------|
A|--0-----------4-----------0----------4-----------------|
E|-------------------------------------------------------|





       A            C#m          A9               C#m
E|-------------------------------------------------------|
B|-------2-----------5-----------0---------5-------------|
G|----2----2------6----6------3----3-----6---------------|
D|---2-2--2-2----6-6--6-6----3-3--3-3---6-6--------------|
A|--0-----------4-----------0----------4-----------------|
E|-------------------------------------------------------|



(Verso Arpejando - a partir de F#m toca normal)

A                         C#m
I'm so tired of being here.

A9                      C#m
Suppressed by all of my childish fears.

A
And if you have to leave.

C#m
I wish that you would just leave.

A9
Your presence still lingers here.

C#m                    F#m
And it won't leave me alone.

(Ponte)

C#m                        F#m
These wounds won't seem to heal.

C#m                   F#m
This pain is just too real.

C#m                        E
There's just too much that time cannot erase.

(Refrão)

F#m        D        E        C#m
When you cried i'd wipe away all of your tears.

F#m          D          E        C#m
When you'd scream i'd fight away all of your fears.

F#m       D         E           C#m
And i've held your hand through all of these years.

F#m      D     E             A C#m A9 C#m (Arpejando)
But you still have all of me

(Verso Arpejando - a partir de F#m toca normal)

A
You used to captivate me.

C#m
By your resonating light.

A9                       C#m
But now i'm bound by the life you left behind.

A                  C#m
Your face it haunts my once pleasant dreams.

A9                       C#m                  F#m
Your voice it chased away all the sanity in me.

(Ponte)

C#m                        F#m
These wounds won't seem to heal.

C#m                   F#m
This pain is just too real.

C#m                        E
There's just too much that time cannot erase.

(Refrão)

F#m        D        E        C#m
When you cried i'd wipe away all of your tears.

F#m          D          E        C#m
When you'd scream i'd fight away all of your fears.

F#m       D         E           C#m
And i've held your hand through all of these years.

F#m      D     E
But you still have all of me.


 D             F#m            E               D
I've tried so hard to tell myself that you're gone.
      Bm                E/C#
But though you're still with me.
 D          E
I've been alone all along.

Violão/ guitarra base - F#m D E C#m F#m D E C#m


Violão/ guitarra solo

G|----------------------------6------------------6-7-6-6------|
D|------7-9-7-7-6----7-6b7-----9-7-6---7-9-11b12------9-7-6-7-|
A|-7-9-----------9-9------7---------9-9-----------------------|
E|-------------------------9----------------------------------|



(Refrão)

F#m        D        E        C#m
When you cried i'd wipe away all of your tears.

F#m          D          E        C#m
When you'd scream i'd fight away all of your fears.

F#m       D         E           C#m
And i've held your hand through all of these years.

F#m      D     E
But you still have all of me.

A C#m A9 C#m A C#m A9 C#m (Arpejando)

Comentarios 71

  • Vera Vera: Publicado en 03/04/2015 14:04

    alguém me diz o ritmo e a batida ??? o dedilhado eu peguei mas a batida ainda não :¹

  • Adriane Adriane: Publicado en 07/03/2015 16:35

    Gente, essa ponte, do final, está com os acordes certos ? Soa desafinado quando junta com a voz... E o solo depois ? Alguém sabe ?

  • marley marley: Publicado en 21/12/2014 20:26

    Boa noite pessoal. Gostaria de agradecer a todos que dedicam seu tempo e conhecimento para postar essas cifras. Se esta 100% certo ou nao na

  • mayara.hero mayara.hero: Publicado en 18/08/2014 08:33

    Gente o arpejo tá errado.
    onde é o dedilhado do LÁ, é casa 2 e não casa 3.

  • doutoretec doutoretec: Publicado en 20/06/2014 16:12

    tem gente que fica mudando o tom da música para achar uma cifra mais fácil como eu?kkkk

    • cinthya cinthya: Publicado en 31/07/2014 12:09

      Não ._.

    • Bianca Bianca: Publicado en 07/03/2015 16:28

      Eu O/ kkkk

    • Herson Herson: Publicado en 13/03/2015 13:47

      Opa rsrsrsr!

  • bela1 bela1: Publicado en 31/05/2014 18:18

    Alguém sabe como é o dedilhado no fim refrão??

  • dihego dihego: Publicado en 29/04/2014 20:31

    E|----------5--7-5---------5--9---5--
    B|---------5--5-5-5------5---5--5---
    G|-------6-------------6------
    D|-
    A|-
    E|-
    tocar ate o refrão

Exhibiendo 10 de 71 comentarios Mostrar más ver todo »
Composición: Amy Lee / Ben Moody / David Hodges / Domenico Lancellotti / Paulinho Ramos / Prince
Ese no és el compositor? Avisenos.
Contribución: dark666 Correcciónes: Matheus , l_e_o_n_a_r_d_o e mais 13 »
Exhibir acordes »
publicidad
cerrar