Down We Fall Acoustic

Drake Bell

 Drake Bell
Tono: A
		
ok, i know this is 100% correct. all the other tabs for this song thus far have been
so ignore those. people please don't tab a song unless you know it's right and you know
you're talking about/doing. my sister is a music major at ISU and she sat at the piano 
about an hour helping me figure out the EXACT chords to this song. I tinkered with it and
the clip of Drake playing it on you tube forever before coming up with this tested and 
tab of the song. Prepare to hurt your fingers playing this one ;)

by the way, make sure your guitar is tuned 1/2 step down before you play this...and
have to listen to the song to figure out the strumming patterns and what not


verse (repeat once):

Cm, Gmaj:


e|---4--4----------------------|
B|---5--4----------------------|
G|---6--5----------------------|
D|---6--6----------------------|
A|---4--6----------------------|
E|---4--4----------------------|



Ebmaj, Bb7


e|------2---------------------|
B|----------------------------|
G|---1--2---------------------|
D|---2--1---------------------|
A|---2--2---------------------|
E|----------------------------|



transistion:


Fm, ?, Cm, Bmaj, Eb/Bb?


e|---2-----4------------------|
B|---2-----5--1---------------|
G|---2--5--6------------------|
D|---4--4--6--2--2------------|
A|---4--3--4--3--3------------|
E|---2-----4------------------|


chorus (repeat twice):


Ebmaj, Eb7/Gmaj, Abmaj


e|----7-----5-----------------|
B|----7-----5-----------------|
G|----9--7--6-----------------|
D|----9--6--7-----------------|
A|----7--5--7-----------------|
E|----7-----5-----------------|



2nd transition:


?


e|----------------------------|
B|----------------------------|
G|---5------------------------|
D|---4------------------------|
A|---3------------------------|
E|----------------------------|


mini riff (repeat once):


?, ?, ?, ?, Ebmaj, Bb7(only on 2nd time through)

e|---4--4--4--4-----2---------|
B|---4--5--4--5---------------|
G|---5--6--5--6--1--2---------|
D|---7--7--7--7--2--1---------|
A|---4--4--4--4--2--2---------|
E|---4--4--4--4---------------|


End Riff (repeat once):

Ebmaj(maj7), ?, Ebmaj

e|----------------------------|
B|----------------------------|
G|---------1------------------|
D|---2--4--2------------------|
A|---3--5--2------------------|
E|---3--5---------------------|



practice hard and enjoy! :)
1.187 exhibiciónes

Comentarios 0

Consigo tocarSin embargo, para tocar esta canción. ¡Sé el primero!
    Aún no puedo reproducir
    Exhibir acordes »
    publicidad
    cerrar