Basta a Ti Clamar

Diego Natan

 Diego Natan Compositor: Diego Natan
Tono: E
		
Tom: E

Intro: C#m A9 F#m G#m


E|---------------------------------------------------------------|
B|---------------------------------------------------------------|
G|---------------------------------------------------------------|
D|------------------------------------------------------2--4--2--|
A|-0-2-4-4-4-4-4-4-4-4-0-0-0-0-0-4-2-0------------0-2-4----------|
E|-------------------------------------2-2-2-2-2-----------------|



E|----------------------------------------------------------------------4--|
B|----------------------------------------------------------------------5--|
G|----------------------------------------------------------------------6--|
D|----------------------------------------------------------------------6--|
A|-0-2-2-4-4-4-4-4-4-4-4-0-0-0-0-0-4-2-0---------------------2--4---2-0-4--|
E|---------------------------------------2-2-2-2-2-2-2-2-4-----------------|


C#m           A9             F#m
  Senhor queremos Te encontrar
  G#m             C#m
E quando Te encontrar
         A9          F#m
Nós sairemos diferentes
         G#m         C#m
Como alguém que renasceu
           A9           F#m
Cheios da Tua presença
          G#m
Cheios do Teu poder
C#m         A9
Prontos para batalha
F#m         G#m
Vamos de glória em glória  (2x)

C#m   B         F#m
Teu nome tem poder
 G#m             C#m
Para transformar
      B          F#m
Deus forte não há outro
G#m
Que possa o enfrentar
F#m      G#m        A9
Sei que nunca falhará
B
Basta a Ti clamar
C#m    B          F#m
Que onde eu estiver
 G#m            A  B   A    B   C#m
Virá me encontrar ahh ahhh ahhh
53 exhibiciónes

Comentarios 0

Composición: Sabe quien és el compositor? Envíenos. Contribución: neno107 Correcciónes: mfurlaan »
Consigo tocarSin embargo, para tocar esta canción. ¡Sé el primero!
    Aún no puedo reproducir
    Exhibir acordes »
    publicidad
    cerrar