It's Not Over

Daughtry

 Daughtry
Tono: D
		

E |--------------------------------------------------------------|   (2x)
B |---------1--2----------1--2-----------1--------------1--------|
G |-------3------3------3------3-------3---3---------3----3------|
D |-----3-------------3--------------3--------3----3--------3----|
A |---1----------------------------------------------------------|
E |-----------------4-------------2--------------4---------------|

Bb5            G#5
I  was blown away...


E |--------------------------------------------------------------|
B |----------4-2-----------4-2-----------2--------------1--------|
G |-------3------3------3------3-------3----3----------3---3--3--|
D |-----3-------------3--------------3---------3----3------------|  (2x)
A |---1----------------------------------------------------------|
E |-----------------4-------------2---------------4--------------|

            F#5
What could i say?
    G#5                   Bb5
It all seemed to make sense.
         G#5              F#5
You've taken away everything,
       G#5
And i can't deal with that.

Bbm       G#               F#
I try to see the good in life,
            G#                        Bbm
But good things in life are hard to find.
                G#              F#
We'll blow it away, blow it away.
              G#             Bbm     C#5
Can we make this something good?
F#                          G#5
Well, i'll try to do it right this time around.

F#5             G#5
 let's start over
 Bbm                   G#5
 i'll try to do it right this time around.
 F#5             G#5
  it's not over.
 Bbm                       G#5
 'cause apart of me is dead and in the ground.
 F#5     G#5     Bbm
 this love is killing me,
      G#5
 but you're the only one.
 F#5            F5
 it's not over.

(dedilhado inicial)

Taken all i could take,
And i cannot wait.
We're wasting too much time
Being strong, holding on.
Can't let it bring us down.

( Bbm  G#5  F#5  G#5 )
My life with you means everything,
So i won't give up that easily.
I'll blow it away, blow it away.
Can we make this something good?
'cause it's all misunderstood.
Well, i'll try to do it right this time around.

F#5             G#5
 let's start over
 Bbm                   G#5
 i'll try to do it right this time around.
 F#5             G#5
  it's not over.
 Bbm                       G#5
 'cause apart of me is dead and in the ground.
 F#5     G#5     Bbm
 this love is killing me,
      G#5
 but you're the only one.
 F#5            F5
 it's not over.

(solo)

E |--9--8----------9--8---------------9---11-------16-16----16-18--21-20-21-20-|(com vibrato)
B |-------9/11--7/9---------9/11--7/9------------18-------18-------------------|
G |----------------------------------------------------------------------------|


We can't let this get away.
Let it out, let it out.
Don't get caught up in yourself.
Let it out.

F#5             G#5
 let's start over
 Bbm                   G#5
 i'll try to do it right this time around.
 F#5             G#5
  it's not over.
 Bbm                       G#5
 'cause apart of me is dead and in the ground.
 F#5     G#5     Bbm
 this love is killing me,
      G#5
 but you're the only one.
 F#5            F5
 it's not over.

Let's start over.
It's not over, yeah...
This love is killing me,
But you're the only one.
It's not over.
511 exhibiciónes

Comentarios 1

  • tdevil tdevil: Publicado en 13/01/2011 20:10

    essa musica e da hr heim

Composición: Chris Daughtry
Ese no és el compositor? Avisenos.
Contribución: Igor Numeriano Correcciónes: rodrigoreny e mais 1 »
Exhibir acordes »
publicidad
cerrar