God Is Dead?

Black Sabbath

 Black Sabbath
Intro:
 Gb|----------------------------------------------|
 Db|----------------------------------------------|
 Ab|----------------1----------------3------------|
 Eb|-0----2----0--------3--0----2---------2---2-3-|

 Gb|---------------------------------------------------|
 Db|---------------------------------------------------|
 Ab|----------------------1----------------3-----------|
 Eb|-0----2---2-3-0---2-3-----3--0----2--------2---2-3-|

 MAIN RIFF:
 Gb|---------------------------------------------------------------------|
 Db|---------------------------------------------------------------------|
 Ab|-5h7------------------------------------------5h7--------------------|
 Eb|-------0-0-0--0--0--0-0-0--0--0--0-0-0--0--0--------0-0-0--2--3------|

 Gb|---------------------------------------------------------------------|
 Db|---------------------------------------------------------------------|
 Ab|-5h7------------------------------------------5h7-----------------5--|
 Eb|-------0-0-0--0--0--0-0-0--0--0--0-0-0--0--0--------0-0-0--2--3------|

 Gb|---------------------------------------------------------------------|
 Db|---------------------------------------------------------------------|
 Ab|-5h7------------------------------------------5h7--------------------|
 Eb|-------0-0-0--0--0--0-0-0--0--0--0-0-0--0--0--------0-0-0--2--3---/\-|

 Gb|---------------------------------------------------------------------|
 Db|---------------------------------------------------------------------|
 Ab|-5h7------------------------------------------5h7--------------------|
 Eb|-------0-0-0--0--0--0-0-0--0--0--0-0-0--0--0--------0-0-0--7--6---3--|

 VERSE:
 Gb|------------------------------------------|x4
 Db|------------------------------------------|
 Ab|-----------------0----------------0-------|
 Eb|-0----2h3-2--2-3---3-0----2h3--2----3-2-3-|

 Gb|--------------------------------------|
 Db|--------------------------------------|
 Ab|-----------------0----------------1---|
 Eb|-0----2h3-2--2-3---3-0----2h3-2-------|

 Gb|------------------------------------------|x3
 Db|------------------------------------------|
 Ab|-----------------0----------------0-------|
 Eb|-0----2h3-2--2-3---3-0----2h3--2----3-2-3-|

 Gb|--------------------------------------|
 Db|--------------------------------------|
 Ab|-----------------0----------------1---|
 Eb|-0----2h3-2--2-3---3-0----2h3-2-------|

 CHORUS (x2):
 Gb|------------3-5-3-----------------------------------|
 Db|------3-4-5-------5-4-3-----------------------------|
 Ab|-3--3-------------------5-4-3-2--2-2-2-2-2----------|
 Eb|--------------------------------------------3---2---|

 Gb|----------------------------------------------|
 Db|----------------------------------------------|
 Ab|------7-6-5------------------7-6-5------------|
 Eb|-0--0-------7-6--0-6-7--0--0-------7-6--0-6-5-|

 VERSE 2:
 Gb|---------------------------------|
 Db|---------------------------------|
 Ab|-------------------------0-------|
 Eb|-0----2---3--0---2h3-2-----3-2-3-|

 Gb|------------------------------------------|
 Db|------------------------------------------|
 Ab|-----------------0----------------0-------|
 Eb|-0----2h3-2--2-3---3-0----2h3--2----3-2-3-|

 Gb|------------------------------------|
 Db|------------------------------------|
 Ab|---------------3----------------1---|
 Eb|--0----2h3-2-------0----2h3-2-------|

 Gb|------------------------------------------|
 Db|------------------------------------------|
 Ab|-----------------0----------------0-------|
 Eb|-0----2h3-2--2-3---3-0----2h3--2----3-2-3-|

 Gb|---------------------------------------|
 Db|---------------------------------------|
 Ab|---------------3------------------1----|
 Eb|--0----2h3-2------3--0----2h3-2--------|

 Gb|------------------------------------------|
 Db|------------------------------------------|
 Ab|-----------------0----------------0-------|
 Eb|-0----2h3-2--2-3---3-0----2h3--2----3-2-3-|

 Gb|------------------------------------|
 Db|------------------------------------|
 Ab|---------------3----------------1---|
 Eb|--0----2h3-2-------0----2h3-2-------|

 Gb|------------------------------------------|
 Db|------------------------------------------|
 Ab|-----------------0----------------0-------|
 Eb|-0----2h3-2--2-3---3-0----2h3--2----3-2-3-|

 Gb|------------------------------------|
 Db|------------------------------------|
 Ab|---------------3----------------1---|
 Eb|--0----2h3-2-------0----2h3-2-------|

 VERSE 3:
 Gb|---------------5--------------------------7-----------|
 Db|-------------5---5----------------------7---7----4-5--|
 Ab|-3--3-3-3--3-------3--3--0-3-5---5-5--5-------5-------|
 Eb|------------------------------------------------------|

 Gb|------5------------------------7-------------------|
 Db|---------5---5---------------7----7--------4-5-4---|
 Ab|-3--3------3---3--3--0-3-5----------5--5-5-------5-|
 Eb|---------------------------------------------------|

 Gb|-------5-----------5-------------------------------|
 Db|----3h5---5---5------------------------------5-----|
 Ab|-3----------3---3----0-3-0-5--5-5-5--5-5--5-----5--|
 Eb|---------------------------------------------------|

 RIFF 1:
 Gb|-------------------------|x2
 Db|-------------------------|
 Ab|----------------7---7-6--|
 Eb|-0--0-0-0-3--0----0------|

 Gb|------------------------|x10
 Db|------------------------|
 Ab|---------------7---7-6--|
 Eb|-0---0-0-3--0----0------|

 CHORUS 2:
 Gb|------------3-5-3-----------------------------------|
 Db|------3-4-5-------5-4-3-----------------------------|
 Ab|-3--3-------------------5-4-3-2--2-2-2-2-2----------|
 Eb|--------------------------------------------3---2---|

 Gb|----------------------------------------------|
 Db|----------------------------------------------|
 Ab|------7-6-5------------------7-6-5------------|
 Eb|-0--0-------7-6--0-6-7--0--0-------7-6--0-6-5-|

 Gb|------3-5-3-----------------------------------------|
 Db|------------5-4-3-------3-4-5-----------------------|
 Ab|-3--3-------------5-4-3-------2--2-2-2-2-2----------|
 Eb|--------------------------------------------3---2---|

 Gb|----------------------------------------------|
 Db|----------------------------------------------|
 Ab|------7-6-5------------------7-6-5------------|
 Eb|-0--0-------7-6--0-6-7--0--0-------7-6--0-6-5-|

 PLAY:
 MAIN RIFF

 BREAKDOWN:
 Gb|----------------------------------------|
 Db|----------------------------------------|
 Ab|----------------------------------------|
 Eb|-0-------------------------------/\-----|

 BLUES RIFF:
 Gb|----------------------------------------|x2
 Db|--------------5-------------------------|
 Ab|------7p5-7-----7-5-----5---------------|
 Eb|-0--0---------------7-----7-6-5---0-3h5-|

 RIFF 2 (x4):
 Gb|------------------------------------|
 Db|------------------------------------|
 Ab|------------------------------------|
 Eb|-0--0-3--0--0-3--0---0-3--0--0-5--6-|


 Gb|------------------------------------|
 Db|------------------------------------|
 Ab|------------------------------------|
 Eb|-0--0-3--0--0-3--0---0-3--0--0-6--5-|

 PLAY:
 BLUES RIFF (x4)

 RIFF 3:
 Gb|------9-7---9-7-----------7-5---7-5---7-5---|
 Db|----------9-----9-4--5--7-----7-----7-----7-|
 Ab|-7--7---------------------------------------|
 Eb|--------------------------------------------|

 Gb|-----------7-5------------------------------|
 Db|---4-5-6-7-----7-6-5------5---------------5-|
 Ab|-5-------------------7--7---7-5---5---5-7---|
 Eb|--------------------------------7---7-------|

 Gb|------9-7---9-7-----------7-5---7-5---7-5---|
 Db|----------9-----9-4--5--7-----7-----7-----7-|
 Ab|-7--7---------------------------------------|
 Eb|--------------------------------------------|

 Gb|-----------7-5--------------------------7-9-|
 Db|---4-5-6-7-----7-6-5------5-------5-7-9-----|
 Ab|-5-------------------7--7---7-5-7-----------|
 Eb|--------------------------------------------|

 Gb|------9-8-7---7-----------7-5---7-5---7-5---|
 Db|------------9---9-4--5--7-----7-----7-----7-|
 Ab|-7--7---------------------------------------|
 Eb|--------------------------------------------|

 Gb|-----------7-5------------------------------|
 Db|---4-5-6-7-----7-6-5------5-----------------|
 Ab|-5-------------------7--7---7-5---5---------|
 Eb|--------------------------------7---7-6-5-3-|

 Gb|------9-7---9-7-----------------7-5---7-5---|
 Db|----------9-----9-4--5----5-6-7-----7-----7-|
 Ab|-7--7-------------------7-------------------|
 Eb|--------------------------------------------|

 Gb|-----------7-5--------------------------7-9-|
 Db|---4-5-6-7-----7-6-5------5-------5-7-9-----|
 Ab|-5-------------------7--7---7-5-7-----------|
 Eb|--------------------------------------------|

 PLAY:
 BLUES RIFF (x4)

LAST CHORUS:
 Gb|------------3-5-3-----------------------------------|
 Db|------3-4-5-------5-4-3-----------------------------|
 Ab|-3--3-------------------5-4-3-2--2-2-2-2-2----------|
 Eb|--------------------------------------------3---2---|

 Gb|----------------------------------------------|
 Db|----------------------------------------------|
 Ab|------7-6-5------------------7-6-5------------|
 Eb|-0--0-------7-6--0-6-7--0--0-------7-6--0-6-5-|

 Gb|------3-4-5--------------------------------------------|
 Db|------------5-4-3-------3-4-5--------------------------|
 Ab|-3--3-------------5-4-3-------2--2-2-2--2--------------|
 Eb|-------------------------------------------3--3--2--2--|

 Gb|----------------------------------------------|
 Db|----------------------------------------------|
 Ab|------7-6-5------------------7-6-5------------|
 Eb|-0--0-------7-6--0-6-7--0--0-------7-6--0-6-5-|

 Gb|----------------------------------------------|
 Db|----------------------------------------------|
 Ab|------7-6-5------------------7-6-5------------|
 Eb|-0--0-------7-6--0-6-7--0--0-------7-6--0-6-5-|

Comentarios 0

Composición: Geezer Butler/Tony Iommi/Ozzy Osbourne
Ese no és el compositor? Avisenos.
Contribución: Vinícius
  1. Sweet Child O' Mine - Guns N' Roses mantiene 2.742 exhibiciones
  2. Wonderwall - Oasis mantiene 2.042 exhibiciones
  3. All Of Me - John Legend mantiene 1.616 exhibiciones
  4. When I Was Your Man - Bruno Mars mantiene 1.580 exhibiciones
  5. Nothing Else Matters - Metallica mantiene 1.557 exhibiciones
  6. Stairway To Heaven - Led Zeppelin mantiene 1.476 exhibiciones
  7. More Than Words - Extreme mantiene 1.426 exhibiciones
  8. Hey Jude - The Beatles mantiene 1.408 exhibiciones
  9. The Scientist - Coldplay mantiene 1.323 exhibiciones
  10. Wake Me Up - Avicii mantiene 1.110 exhibiciones
  1. The Beatles- mantiene 21.392 exhibiciones
  2. Guns N' Roses- mantiene 7.167 exhibiciones
  3. Metallica- mantiene 6.861 exhibiciones
  4. Red Hot Chili Peppers- mantiene 5.255 exhibiciones
  5. Coldplay- mantiene 5.161 exhibiciones
  6. Nirvana- mantiene 5.132 exhibiciones
  7. One Direction- mantiene 4.644 exhibiciones
  8. Bruno Mars- mantiene 4.579 exhibiciones
  9. Oasis- mantiene 4.527 exhibiciones
  10. Green Day- mantiene 3.576 exhibiciones

Acordes y tabs

Aprenda

Studio Sol

©1996 - 2014 Cifra Club · el primero, mayor y más accedido del Brasil · 336 mil músicas · 6.2 millones de personas registradas

publicidad
cerrar