Eat The Rich

Aerosmith

 Aerosmith
Tono: E
		
   Intro                                                    

|---0--0-----0--0--|-----0--0-----------||------------------
|---0--0-----0--0--|-----0--0-----8--8--||------------------
|---4--4-----4--4--|-----4--4-----7--7--||*-----------------
|---2--2-----2--2--|-----2--2-----6--6--||*-------5---------
|---2--2-----2--2--|-----2--2-----7--7--||---5h7-----5h7----
|---0--0-----0--0--|-----0--0-----------||------------------

                                                            

(Riff                                   Verse                 )

(--------------------------------------||----||---5--3---||---)
(--------------------------------------||----||---5--3---||---)
(-------------------------------------*||----||*--------*||---)
(------5~-----------------------------*||----||*--------*||---)
(-5h7------5h7----------5--------------||----||----------||---)
(---------------3~--5h6---6-5-3--0-0---||----||----------||---)

                                                            

Pre-chorus:  I'm sick of your complaining about how many bills     

--------------------------|----------~~~~-------|------------
--------------------------|---------------------|------------
--------------------------|-----2---2b-----(2)--|------------
-------2---------4--------|--5--2---------------|--2---------
-------2---------4--------|--5--0---------------|--2---------
-------0---------2--------|--3------------------|--0---------

                                                            

                                                            

------------|--------------------------||--------------------
------------|--------------------------||--------------------
------------|-----------2--------------||--4--4--4--4--4-----
---4--------|--5--------2--------------||--4--4--4--4--4-----
---4--------|--5--------0--------------||--2--2--2--2--2-----
---2--------|--3-----------------------||--------------------

                                                            

                                Chorus                      

---------|-----------------||--------------------------------
---------|-----------------||--------------------------------
4--4--4--|--2-----2--4--4--||*------------------------------
4--4--4--|--2-----2--4--4--||*------------------------------
2--2--2--|--2-----2--2--2--||-------------------------------
---------|-----------------||--------------------------------

                                                            

Eat the rich there's only one thing that there good for          

------------------------------------------||-----------------
------------------------------------------||-----------------
-------------------------------------4---*||-----------------
-7h9--7------------------------------2---*||-----------------
-5----5--7h-9--7--7-----7--5--2-----------||-----------------
---------5-----5--5-----5--3--0-----------||-----------------

                                                            

If you have any questions or comments on this song please write
me.  This is pretty easy to figure out.

============================================================
==                 TABLATURE EXPLANATION                  ==
============================================================

----------                            -----------
----5h8--- Hammeron                   -----(8)--- Ghost Note
----------                            -----------
----5p8--- Pulloff                    -----------

----------                            -----------
----5/8--- Slide Up                   ------x---- Dead Note
----------                            -----------
----58--- Slide Down                 -----------

----------                            |||------|| Repeat Start & End
----5~~~-- Vibrato                    |||*----*||
----------                            |||*----*||
----------                            |||------||

Comentarios 0

Composición: Alex Ridha / Chris Rojas / Hebert Vianna / Jim Vallance / Joe Perry / Steven Tyler
Ese no és el compositor? Avisenos.
Contribución: Xandefera
Consigo tocarSin embargo, para tocar esta canción. ¡Sé el primero!
    Aún no puedo reproducir
    Exhibir acordes »
    publicidad
    cerrar