Self Esteem

The Offspring

 The Offspring
Tono: F
		
Lala lalalala lalala…

Riff 1 - 2x e depois Riff 2

(Riff 2)
I wrote her off for the tenth time today
And practiced all the things I would say
But she came over, I lost my nerve
I took her back and made her desert

(Riff 3)
Now I know I'm being used
That's okay, man, cause I like the abuse
I know she's playing with me
But that's ok cause I got no self esteem

(Riff 1)
Own en yeah yeah yeahh - 4x

(Riff 2)
We make plans to go out at night
I wait till 2 then I turn out the light

(Riff 3)
All this rejection's got me so low
If she keeps it up I just might tell her so

(Riff 1)
Own en yeah yeah yeahh - 4x

(Riff 4)
When she's saying, oh, that she wants only me
Then I wonder why she sleeps with my friends
When she's saying, oh, that I'm like a disease
Then I wonder how much more I can spend
Well I guess, I should stick up for myself
But I really think it's better this way
The more you suffer, the more it shows you really care...
Right? Yeah!

(Riff 2)
Now I'll relate this a little bit
That happens more than I'd like to admit
Late at night she knocks on my door
She's drunk again and looking to score

(Riff 3)
Now I know I should say no
But it's kind of hard when she's ready to go
I may be dumb, but I'm not a dweeb
I'm just a sucker with no self esteem

(Riff 1)
Own en yeah yeah yeahh - 4x


Repete o verso do Riff 4



Riff 1

e|-------------------------------------------------|
B|-------------------------------------------------|
G|----------------10-10---5-5----------------------|
D|-7--7--x-x-x-x--10-10---5-5--x-x-x-x--5-5--- (3)-|
A|-7--7--x-x-x-x--8--8----3-3--x-x-x-x--5-5--- (3)-|
E|-5--5--x-x-x-x---------------x-x-x-x--3-3--- (1)-|


Riff 2 (riff do baixo)

G|---------------------|
D|---------------------|
A|------8-8-—3-3-------|
E|--5-5----------3-3---|


Riff 3

|---------------------------------------------------------|
|---------------------------------------------------------|
|------------------------5-5-5-5-5------------------------|
|-7-7-7-7-7--3-3-3-3-3---5-5-5-5-5--5-5-5-5-5---7-7-7-7-7-|
|-7-7-7-7-7--3-3-3-3-3->-3-3-3-3-3--5-5-5-5-5---7-7-7-7-7-|
|-5-5-5-5-5--1-1-1-1-1--------------3-3-3-3-3->-5-5-5-5-5-|


Riff 4 (PONTE)

|-----------------------------|
|-----------------------------|
|-7-7-x-3-3-x-----x-5-5-5-5-5-|
|-7-7-x-3-3-x-3-3-x-5-5-5-5-5-|
|-5-5-x-1-1-x-3-3-x-3-3-3-3-3-|
|-----x-----x-1-1-x-----------|


Riff 5

|---------------------------------------------|
|---------------------------------------------|
|-7-7-x-3-3-x-5-5-x---------------------------|
|-7-7-x-3-3-x-5-5-x-5-5-x-3-3-3-3-3-3-3-3-3-3-|
|-5-5-x-1-1-x-3-3-x-5-5-x-3-3-3-3-3-3-3-3-3-3-|
|-------------------3-3-x-1-1-1-1-1-1-1-1-1-1-|

Comentarios 1

Composición: Bicudo / Chris E. Martin / The Offspring
Ese no és el compositor? Avisenos.
Contribución: ripa
Exhibir acordes »
publicidad
cerrar