Last Resort

Papa Roach

 Papa Roach
Tono: G
		
  Cut my life into pieces

  This is my last resort
E5
  Suffocation
D5
  No breathing
  C5                      B5          D5
  Don't give a fuck if I cut my arm bleeding


-Riff 1

E|---------------------------------------------------|
B|---------------------------------------------------|
G|-------------------4-------------------------------|
D|-------5---4---5-------5---4---5-------5---4---5---|
A|---7-------------------------------5---------------|
E|---------------------------------------------------|



E|---------------------------------------------------|
B|---------------------------------------------------|
G|---4-----------------------------------------------|
D|-------5---4---5-----------------------------------|
A|---------------------------------------------------|
E|---------------------------------------------------|

-

-Riff 2

E|---------------------------------------------------|
B|---------------------------------------------------|
G|-------------------4-------------------------------|
D|-------5---4---5-------5---4---5-------5---4---5---|
A|---3-------------------------------5---------------|
E|---------------------------------------------------|



E|---------------------------------------------------|
B|---------------------------------------------------|
G|---4-----------------------------------------------|
D|-------5---4---5-----------------------------------|
A|---------------------------------------------------|
E|---------------------------------------------------|

-

  This is my last resort


Riff 1

Riff 2

Riff 1
  Cut my life into pieces

Riff 2
  I've reached my last resort
  Suffocation
  No breathing

Riff 1
  Don't give a fuck if I cut my arm bleeding

Riff 2
  Do you even care if I die bleeding?

Riff 1
  Would it be wrong?
  Would it be right?

Riff 2
  If I took my life tonight?
  Chances are that I might

Riff 1
  Mutilation outta sight

Riff 2                          B5  D5
  And I'm contemplating suicide


          E5
  'Cuz I'm losing my sight
  C5
  Losing my mind
  B5      C5          D5           B5
  Wish somebody would tell me I'm fine
  E5
  Losing my sight
  C5
  Losing my mind
  B5      C5          D5           B5
  Wish somebody would tell me I'm fine


Riff 1

Riff 2

Riff 1
  I never realized I was spread too thin

Riff 2
  Till it was too late 
  And I was empty within
  Hungry

Riff 1
  Feeding on chaos
  And living in sin

Riff 2
  Downward spiral where do I begin?

Riff 1
  It all started when I lost my mother

Riff 2
  No love for myself
  And no love for another

Riff 1
  Searching to find a love up on a higher level

Riff 2                              B5     D5
  Finding nothing but questions and devils

           E5
  'Cuz I'm losing my sight
  C5
  Losing my mind 
  B5       C5          D5          B5
  Wish somebody would tell me in fine
  E5
  Losing my sight 
  C5
  Losing my mind
  B5       C5          D5           B5
  Wish somebody would tell me I'm fine
  E5         C5
  Nothing's alright
  G5          D5
  Nothing is fine
 E5        C5           G5    D5
   I'm running and I'm crying
 E5     C5
   I'm crying
 G5     D5
   I'm crying
 E5     C5
   I'm crying
 G5     D5
   I'm crying


E5   D5       C5    B5   D5
  I - can't - go - on
E5     D5     C5      B5    D5
  Liv - ing - this - way
E5             D5
  Cut my life into pieces
C5            B5     D5
  This is my last resort
E5
  Suffocation
D5
  No breathing
  C5                      B5          D5
  Don't give a fuck if I cut my arm bleeding


Riff 1
  Would it be wrong
  Would it be right

Riff 2
  If I took my life tonight
  Chances are that I might

Riff 1
  Mutilation outta sight

Riff 2                          B5  D5
  And I'm contemplating suicide


           E5
  'Cuz I'm losing my sight
  C5
  Losing my mind 
  B5       C5          D5         B5
  Wish somebody would tell me I'm fine
  E5
  Losing my sight 
  C5
  Losing my mind
  B5       C5          D5           B5
  Wish somebody would tell me I'm fine
  E5         C5
  Nothing's alright
  G5          D5
  Nothing is fine
E5       C5            G5    D5
  I'm running and I'm crying


  E5   C5     B5 C5 D5 B5
  I - can't - go - on
  E5     C5    B5 C5 D5 B5
  Liv - ing - this - way
 E5   C5   (G5 D5)
 E5   C5
   B5   C5  D5  B5
   Can't go on
 E5  C5
   B5 C5   D5    B5
   Living this way
 E5   C5
   B5  C5     D5  B5
   Nothing's all
 E5
   Right

Power Chords

E5-0 D5-0 B5-0 C5-0 G5-0
   0    0    0    0    0
   9    7    0    0    0
   9    7    9    8    5
   7    5    9    8    5
   x    x    7    6    3

x-abafar corda
Texto Columnas
Alterar tom ½ tono ½ tono
sintonización acordes esconder tabs más »

Comentarios 4

Composición: Blackie Lawless / Deep Purple / Eric Benzi
Ese no és el compositor? Avisenos.
Contribución: john_liberato
  1. Sweet Child O' Mine - Guns N' Roses mantiene 3.007 exhibiciones
  2. Wonderwall - Oasis mantiene 2.239 exhibiciones
  3. All Of Me - John Legend mantiene 1.951 exhibiciones
  4. Stairway To Heaven - Led Zeppelin mantiene 1.574 exhibiciones
  5. Nothing Else Matters - Metallica mantiene 1.547 exhibiciones
  6. When I Was Your Man - Bruno Mars mantiene 1.422 exhibiciones
  7. More Than Words - Extreme mantiene 1.397 exhibiciones
  8. The Scientist - Coldplay mantiene 1.371 exhibiciones
  9. Hey Jude - The Beatles mantiene 1.303 exhibiciones
  10. Wake Me Up - Avicii mantiene 1.096 exhibiciones
  1. The Beatles- mantiene 20.445 exhibiciones
  2. Guns N' Roses- mantiene 6.826 exhibiciones
  3. Metallica- mantiene 5.432 exhibiciones
  4. Coldplay- mantiene 4.969 exhibiciones
  5. Red Hot Chili Peppers- mantiene 4.772 exhibiciones
  6. Oasis- mantiene 4.648 exhibiciones
  7. Bruno Mars- mantiene 4.421 exhibiciones
  8. One Direction- mantiene 3.880 exhibiciones
  9. Nirvana- mantiene 3.723 exhibiciones
  10. Green Day- mantiene 3.354 exhibiciones
Exhibir acordes »

Acordes y tabs

Aprenda

Studio Sol

©1996 - 2014 Cifra Club · el primero, mayor y más accedido del Brasil · 337 mil músicas · 6.2 millones de personas registradas

publicidad
cerrar