Espirito Santo

Fernanda Brum

 Fernanda Brum
Tono: G
		

E|------------------------------------3-3-3-2-------12h-
B|-0----0-1-3-5-----0-3-5-7-----0-5-7---------3/5-5-----
G|----0-4-------------------4-4-------0-0-0-------------
D|---0----------5-5-------------------------0-----------
A|--------0-2-3-------2-3-5-4-4---3-5---------2/3--3----
E|-3----3-------5-5-3-----------3-----3-3-3-------------



E|-----------------------------------------3-2-0---
B|-----------------3-----------------------------3-
G|-----5-4---------------5-7-0---2/4/2-2-2-0---2---
D|-5-7-----5/7-7-5-0-5-7---------------------0---2-
A|---------------------------5-5-------------------
E|-----5-4-----5---------5-7---------------3-------


G                         C9
 Espírito Santo, ore por mim
Am                   D                 G
Leve pra Deus tudo aquilo que eu preciso
        G               C9
Espírito Santo, use as palavras
Am                D                  G
Que eu necessito usar, mas não consigo

E|-------
B|-0-1-3-
G|-------
D|-------
A|---0-2-
E|-3-----

 C                    D
Me ajude nas minhas fraquezas
Bm                    Em
Não sei como devo pedir
        Am      D                   G
Espírito Santo, vem interceder por mim
E|-------
B|-0-1-3-
G|-------
D|-------
A|---0-2-
E|-3-----
C                    D
Todas as coisas cooperam
             Bm               Em
Pra o bem daqueles que amam a ti
         Am    D               G
Espírito Santo,vem orar por mim

              C9             Em
     Estou clamando, estou pedindo
              Am               G
 Só Deus sabe a dor que estou sentindo
G         C9        Em
 Meu coração está ferido
           Am                G
 Mas o meu clamor esta subindo 2x

Comentarios 2

  • lucas lucas: Publicado en 30/08/2014 18:36

    gostei muito

  • chate chate: Publicado en 24/03/2012 16:30

    muito obrigado cifra clube pelo trbalho

Composición: Eyshila
Ese no és el compositor? Avisenos.
Contribución: lipe Correcciónes: Leandro e mais 1 »
Exhibir acordes »
publicidad
cerrar