Lucy In The Sky With Diamonds

The Beatles

 The Beatles
Tono: C
		
Intro:

E|---------12------12--------------12------10p9--------|
B|-----10--------------10------10-----------------10---|
G|--9----------12----------11----------10--------------|
D|-----------------------------------------------------|
A|-----------------------------------------------------|
E|-----------------------------------------------------|


( A A7/G F#m7 F7 )


E|---------12------12--------------12------10p9--------|
B|-----10--------------10------10-----------------10---|
G|--9----------12----------11----------10--------------|
D|-----------------------------------------------------|
A|-----------------------------------------------------|
E|-----------------------------------------------------|


Picture yourself in a boat on a river



E|---------12------12--------------12--8-------8--8----|
B|-----10--------------10------10-----------------10---|
G|--9----------12----------11----------10--10-----10---|
D|-----------------------------------------------------|
A|-----------------------------------------------------|

With tangerine trees and marmalade skies



E|---------12------12--------------12------10p9--------|
B|-----10--------------10------10-----------------10---|
G|--9----------12----------11----------10--------------|
D|-----------------------------------------------------|
A|-----------------------------------------------------|
E|-----------------------------------------------------|

Somebody calls you, you answer quite slowly


E|---------12------12------9-12-9-12-9-12-10-13-10-13--|
B|-----10--------------10--8---------------------------|
G|--9----------12--------------------------------------|
D|-----------------------------------------------------|
A|-----------------------------------------------------|
E|-----------------------------------------------------|

A girl with kaleidoscope eyes

Bb                    C
Celophane flowers of yellow and green
 F                  Bb
Towering over your head
 C                          G
Look for the girl with the sun in her eyes
  	   D
And she's gone

 G            C       D
Lucy in the sky with diamonds (x3)
D
Ahh

 A	   A7/G       F#m7        F7
Follow her down to a bridge by a fountain
       A	     A7/G      F#m7         F7
Where rocking horse people eat marshmallow pies
A         A7/G         F#m7            F7
Everyone smiles as you drift past the flowers
       A        A7/G    F#m7  Dm  Dm/C
That grow so incredibly high

 Bb                C
Newspaper taxis appear on the shore
 F                    Bb
Waiting to take you away
  C                          G
Climb in the back with your head in the clouds
            D
And you're gone...

 G            C       D
Lucy in the sky with diamonds (x3)
D
Ahh

 A	    A7/G       F#m7       F7
Picture yourself on a train in a station
       A	A7/G         F#m7          F7
With plasticine porters with looking glass ties
 A	 A7/G       F#m7         F7
Suddenly someone is there at the turnstile
     A	         A7/G      F#m7  Dm
The girl with kaleidoscope eyes

 G            C       D
Lucy in the sky with diamonds (x3)
D    A
Ahh, ahh  (repete e fade)
Texto Columnas
Alterar tom ½ tono ½ tono
sintonización acordes esconder tabs más »

Comentarios 4

  • wilamesouza wilamesouza: Publicado en 06/09/2014 22:33

    Pra ficar igual o da Novela, põe um tom abaixo e faz os acorde...

  • licia licia: Publicado en 08/08/2013 10:19

    o que significa esse 3p2???

    • Gustavo Gustavo: Publicado en 12/08/2013 19:44

      pull over da casa 3 para a casa 2

  • deeniis deeniis: Publicado en 02/08/2011 17:57

    Muito Bom o Solo

Composición: Harry Warren / John Lennon / Paul McCartney / W. Jean / William Steinberg
Ese no és el compositor? Avisenos.
Contribución: Akuma Correcciónes: Gianluca , washington.scosta.5 e mais 8 »
  1. Sweet Child O' Mine - Guns N' Roses mantiene 3.068 exhibiciones
  2. Wonderwall - Oasis mantiene 2.198 exhibiciones
  3. All Of Me - John Legend mantiene 2.131 exhibiciones
  4. Nothing Else Matters - Metallica mantiene 1.559 exhibiciones
  5. When I Was Your Man - Bruno Mars mantiene 1.529 exhibiciones
  6. Stairway To Heaven - Led Zeppelin mantiene 1.487 exhibiciones
  7. More Than Words - Extreme mantiene 1.462 exhibiciones
  8. Hey Jude - The Beatles mantiene 1.337 exhibiciones
  9. The Scientist - Coldplay mantiene 1.337 exhibiciones
  10. Wake Me Up - Avicii mantiene 1.113 exhibiciones
  1. The Beatles- mantiene 20.264 exhibiciones
  2. Guns N' Roses- mantiene 6.678 exhibiciones
  3. Soda Stereo- mantiene 6.353 exhibiciones
  4. Metallica- mantiene 5.715 exhibiciones
  5. Red Hot Chili Peppers- mantiene 4.883 exhibiciones
  6. Coldplay- mantiene 4.858 exhibiciones
  7. Bruno Mars- mantiene 4.649 exhibiciones
  8. Oasis- mantiene 4.457 exhibiciones
  9. Nirvana- mantiene 4.226 exhibiciones
  10. One Direction- mantiene 4.169 exhibiciones
Exhibir acordes »

Acordes y tabs

Aprenda

Studio Sol

©1996 - 2014 Cifra Club · el primero, mayor y más accedido del Brasil · 338 mil músicas · 6.2 millones de personas registradas

publicidad
cerrar